Oops, an error
Loading. Please wait.

Its Beginning To Look A Lot Like Christmas tab

1,228 views 3 this week
no commentswrite comment
1 2 3 4 5
3 more votes to show rating
add to favorites
×
Save as Personal and add changes to this tab that will be seen only by you. Learn more ›
×
You can save this tab as Personal to edit and correct it or add notes. All changes will be seen only by you. Learn more »
launch autoscroll
font size
0
reset
how to read this tab
guitar tuner
edit
Autoscroll
slow
fast
+/-
esc
set tempo
stop
-----------------------------------------------------------------------------
                 It's Beginning to Look  a Lot Like Christmas
-------------------------------------------------------------------------------
Tabbed by: Chris
E-mail: christian.austin97@gmail.com

Tuning: Standard

This is my first ever tab, so go easy on my guys :P


VERSE A
    It's beginning to look a lot like Christmas
e|---------------------------------------------------------------------------|
B|---------------------------------------------------------------------------|
G|---------------------------------------------------------------------------|
D|----------------------------------5----9----0------------------------------|
A|----2--3----5--7--5----4----5--7-------------------------------------------|
E|---------------------------------------------------------------------------|
   
    Everywhere you go
e|---------------------------------------------------------------------------|
B|---------------------------------------------------------------------------|
G|---------------------------------------------------------------------------|
D|----9----9----7----5-------------------------------------------------------|
A|------------------------7--------------------------------------------------|
E|---------------------------------------------------------------------------|
    
    Take a look in the five and ten, Glistening once again
e|---------------------------------------------------------------------------|
B|---------------------------------------------------------------------------|
G|---------------------------------------------------------------------------|
D|---------4----5--7--5-----------------4--5--4------------------------------|
A|----7--------------------7--8--9---------------5--6--7---------------------|
E|---------------------------------------------------------------------------|
   
    With candy canes and silver lanes aglow
e|---------------------------------------------------------------------------|
B|---------------------------------------------------------------------------|
G|---------------------------------------------------------------------------|
D|-------4--5--7----9--7----5--4-----7---------------------------------------|
A|----7---------------------------7------------------------------------------|
E|---------------------------------------------------------------------------|


VERSE B
    It's beginning to look a lot like Christmas
e|---------------------------------------------------------------------------|
B|---------------------------------------------------------------------------|
G|---------------------------------------------------------------------------|
D|----------------------------------5----9----0------------------------------|
A|----2--3----5--7--5----4----5--7-------------------------------------------|
E|---------------------------------------------------------------------------|

    Toys in every store
e|---------------------------------------------------------------------------|
B|---------------------------------------------------------------------------|
G|---------------------------------------------------------------------------|
D|----9----9----7----5-------------------------------------------------------|
A|------------------------7--------------------------------------------------|
E|---------------------------------------------------------------------------|

    But the prettiest sight to see is the holly that will be
e|---------------------------------------------------------------------------|
B|---------------------------------------------------------------------------|
G|----------------------------------------------------7----------------------|
D|-------4--5--7--5--4--5--4----------------5----9---------------------------|
A|----7-------------------------7--6--5--7-----------------------------------|
E|---------------------------------------------------------------------------|

    On your own front door
e|---------------------------------------------------------------------------|
B|---------------------------------------------------------------------------|
G|----------5----------------------------------------------------------------|
D|---------------4----5------------------------------------------------------|
A|----6--7-------------------------------------------------------------------|
E|---------------------------------------------------------------------------|

VERSE A:
It's beginning to look a lot like Christmas
Everywhere you go
There's a tree in the Grand Hotel, one in the park as well
The sturdy kind that doesn't mind the snow

VERSE B:
It's beginning to look a lot like Christmas
Soon the bells will start
And the thing that will make them ring
Is the carol that you sing right within your heart

            
            
Suggest correction
Creating personal tab
Creating personal tab
You can edit any tab online and save it as your Personal.

You can edit, replace or remove any tab part or add personal notes – all changes will be seen only by you.

Personal tabs can be accessed anytime from any device, even offline.
Learn more »
Give kudos to tab author, rate the tab!
1 2 3 4 5
comments
print report bad tab
guest
You may want to rate the tab now too:
select rating
Wanna post a correction for this tab? Suggest correction