Oops, an error
Loading. Please wait.
132,988 views 33 this week
18 commentsread comments
1 2 3 4 5
x 30
add to favorites
×
Save as Personal and add changes to this tab that will be seen only by you. Learn more ›
×
You can save this tab as Personal to edit and correct it or add notes. All changes will be seen only by you. Learn more »
launch autoscroll
font size
0
reset
how to read this tab
guitar tuner
edit
Autoscroll
slow
fast
+/-
esc
set tempo
stop
    This is the right intro to jingle bells, 
           not like all the others

   Jingle bells....                        ...sleigh, HEY!
e---------------------------------------------------------
B-----------------3---------------------------------------
G--4-4-4--4-4-4--4-0-2-4----5-5-5--5-5-4-4-"-"-"-2-2-4-2-7
D---------------------------------------------------------
A---------------------------------------------------------
E---------------------------------------------------------


   Jingle bells....                        ...open sleigh
e---------------------------------------------------------
B-----------------3---------------------------------------
G--4-4-4--4-4-4--4-0-2-4----5-5-5--5-5-4-4-"-"-7-7-5-4-0--
D---------------------------------------------------------
A---------------------------------------------------------
E---------------------------------------------------------
    
   Thats just the intro i'll try to come up with the rest 
   untill then you can learn the intro and try to come up 
    with the rest yourself.

            
            
Suggest correction
Creating personal tab
Creating personal tab
You can edit any tab online and save it as your Personal.

You can edit, replace or remove any tab part or add personal notes – all changes will be seen only by you.

Personal tabs can be accessed anytime from any device, even offline.
Learn more »
comments
print report bad tab
18 comments total. Showing first comments.
+1 reply
Affe91 10 Dec 21, 2005 03:54 AM

Does the last thing go something like
---------
---------
7-7-5-2-0?
---------
---------
---------

0 reply
fenderstrat87 10 May 31, 2007 09:49 AM

hmmmmmmmmmmm

+1 reply
fenderstrat87 10 Jun 13, 2007 03:05 PM

hey what does
-----------------------------
B----------------------------
G--5--5-5-4-4-"-"-"-2-2-4-2-7
D----------------------------
A----------------------------
E----------------------------
the comma part thing mean?

guest
Wanna post a correction for this tab? Suggest correction