Oops, an error
Loading. Please wait.

Jingle Bells Tab

289 views 42 this week
no commentswrite comment
1 2 3 4 5
3 more votes to show rating
add to favorites
launch autoscroll
font size
0
reset
how to read this tab
guitar tuner
Autoscroll
slow
fast
+/-
esc
set tempo
stop
Help us to improve Ultimate-Guitar.com Take our survey!
×
Author
Jingle Bells


[Intro]

A|--2-----2----2----|--2------2----2---|--2---5---------2---|
E|--3---------------|--3---------------|--3------2---5--3---|
C|--2---------------|--2---------------|--2-------------2---|
G|--0---------------|--0---------------|--0-------------0---|

A|--3---3---3---3---|--2---2---2---2---|---------2-------7--|
E|--0---------------|--3---------------|--5--5--(3)--5---2--|
C|--0---------------|--2---------------|--------(2)------2--|
G|--0---------------|--0---------------|--------(0)------2--|


************************************

| (n)  Ghost note

************************************
Suggest correction
Give kudos to tab author, rate the tab!
1 2 3 4 5
comments
print report bad tab
guest
You may want to rate the tab now too:
select rating
Wanna post a correction for this tab? Suggest correction