Oops, an error
Loading. Please wait.

Jingle Bells Tab

1,392,931 views 4,008 this week
108 commentsread comments
1 2 3 4 5
x 514
add to favorites
launch autoscroll
font size
0
reset
how to read this tab
guitar tuner
Autoscroll
slow
fast
+/-
esc
set tempo
stop
Help us to improve Ultimate-Guitar.com Take our survey!
×
e|--0-0-0-----0-0-0-----0-3-----0-|-1-1-1-1-1-0-0-0-0-0----0-|
B|--------------------------1-3---|--------------------3-3---|
G|--------------------------------|--------------------------|
D|--------------------------------|--------------------------|
A|--------------------------------|--------------------------|
E|--------------------------------|--------------------------|

e|--3--0-0-0----0-0-0----0-3-----0-|--1-1-1-1-1-0-0-0-3-3-1-|
B|3--------------------------1-3---|------------------------|
G|---------------------------------|------------------------|
D|---------------------------------|------------------------|
A|---------------------------------|------------------------|
E|---------------------------------|------------------------|

e|----------------------------------------------------------|
B|3-1-------------------------------------------------------|
G|----------------------------------------------------------|
D|----------------------------------------------------------|
A|----------------------------------------------------------|
E|----------------------------------------------------------|
Suggest correction
comments
print report bad tab
108 comments total. Showing first comments. show 1 bad comment
+15 reply
Firestorm 81 Dec 19, 2001 12:00 AM

its not all there!!

+10 reply
ralph_is_great 10 Dec 22, 2003 12:00 AM

this is gd, but wheres the 'dashing threw the snow in a 1 horse open....' verse bit

guest
You may want to rate the tab now too:
select rating
Wanna post a correction for this tab? Suggest correction