Oops, an error
Loading. Please wait.

Jingle Bells Tab

874 views 1 this week
2 commentsread comments
1 2 3 4 5
1 last vote to show rating
add to favorites
launch autoscroll
font size
0
reset
how to read this tab
guitar tuner
Autoscroll
slow
fast
+/-
esc
set tempo
stop
Help us to improve Ultimate-Guitar.com Take our survey!
×
Author
This is my first tab, so please leave suggestions in the comments.
Tuning: Standard

|----0-----------0-----------1-0-----3-3-1---0-------0------------0------------1-0---3-3-3--5-3-1-----3--|
|------3-1---------3-1-----------3-0-------3-----------3-1----------3-1------------3--------------3-1----|
|0-0-------0--0-0------2--2-2------------------0-0---------0--0-0-------2--2-2---------------------------|
|--------------------------------------------------------------------------------------------------------|
|--------------------------------------------------------------------------------------------------------|
|--------------------------------------------------------------------------------------------------------|

-chorus-

|-0-0-0-----0-0-0-----0-3------0--1-1-1-1-1-0-0-0-------0---3--|   
|--------------------------1-3--------------------3-3-3---3----|
|--------------------------------------------------------------|
|--------------------------------------------------------------|
|--------------------------------------------------------------|
|--------------------------------------------------------------|
   
 
|-0-0-0-----0-0-0-----0-3------0--1-1-1-1-1-0-0-0-3-3-1------|   
|--------------------------1-3--------------------------3-1--|
|------------------------------------------------------------|
|------------------------------------------------------------|
|------------------------------------------------------------|
|------------------------------------------------------------|

-chorus end-

Repeat all this until the song ends. Enjoy!
Suggest correction
Give kudos to tab author, rate the tab!
1 2 3 4 5
comments
print report bad tab
2 comments total.
0 reply
matias brasier 10 Dec 10, 2015 01:30 PM

Lack of accuracy. I i i i i i i ini ini i i i i i i i i i i i i i i i i i i i i i i i in n n n n n n n n n. N n n n n n n n n

0 reply
Voradian 32 Dec 12, 2015 07:16 AM

Umm, what?

guest
You may want to rate the tab now too:
select rating
Wanna post a correction for this tab? Suggest correction