Oops, an error
Loading. Please wait.

Jingle Bells Tab

691 views 3 this week
no commentswrite comment
1 2 3 4 5
1 last vote to show rating
add to favorites
launch autoscroll
font size
0
reset
how to read this tab
guitar tuner
Autoscroll
slow
fast
+/-
esc
set tempo
stop
Help us to improve Ultimate-Guitar.com Take our survey!
×
Author
Difficulty
novice
-------------------------------------------------------------------------------
                             Jingle Bells - Misc Christmas
-------------------------------------------------------------------------------
Tabbed by:
E-mail:

Tuning:

e|0-0-0-----0-0-0-----0-3------ 0-|-1-1-1-1-1-0-0-0-0-----0-|
b|--------------------------1-3---|-------------------3-3---|
g|--------------------------------|-------------------------|
d|--------------------------------|-------------------------|
a|--------------------------------|-------------------------|
E|--------------------------------|-------------------------|

e|--3--0-0-0----0-0-0----0-3-----0-|--1-1-1-1-1-0-0-0-3-3-1-|
b|3--------------------------1-3---|------------------------|
g|---------------------------------|------------------------|
d|---------------------------------|------------------------|
a|---------------------------------|------------------------|
E|---------------------------------|------------------------|

e|----------------------------------------------------------|
b|3-1------------------------------------------------------=|
g|---------------------------------------------------------=|
d|---------------------------------------------------------=|
a|---------------------------------------------------------=|
E|---------------------------------------------------------=|

e|-----0-------|--------0------|-----1-0----|-3-3-1---0-----|
B|-------3-1---|----------3-1--|---------3-0|-------3-------|
G|-0-0-------0-|--0-0-0-------2|-2-2--------|---------------|
D|-------------|---------------|------------|---------------|
A|-------------|---------------|------------|---------------|
E|-------------|---------------|------------|---------------|

e|----0--------|--------0------|-----1-0---3-3-3-3-5-3-1----|
B|------3-1----|----------3-1--|---------3---------------3-1|
G|0-0-------0--|--0-0-0-------2|-2-2------------------------|
D|-------------|---------------|----------------------------|
A|-------------|---------------|----------------------------|
E|-------------|---------------|----------------------------|

e|3-0-0-0-----0-0-0-----0-3-----0-|-1-1-1-1-1-0-0-0-0-----0-|
b|--------------------------1-3---|-------------------3-3---|
g|--------------------------------|-------------------------|
d|--------------------------------|-------------------------|
a|--------------------------------|-------------------------|
E|--------------------------------|-------------------------|

e|--3--0-0-0----0-0-0----0-3-----0-|--1-1-1-1-1-0-0-0-3-3-1-|
b|3--------------------------1-3---|------------------------|
g|---------------------------------|------------------------|
d|---------------------------------|------------------------|
a|---------------------------------|------------------------|
E|---------------------------------|------------------------|

e|----------------------------------------------------------|
b|3-1------------------------------------------------------=|
g|---------------------------------------------------------=|
d|---------------------------------------------------------=|
a|---------------------------------------------------------=|
E|---------------------------------------------------------=|
Suggest correction
Give kudos to tab author, rate the tab!
1 2 3 4 5
comments
print report bad tab
guest
You may want to rate the tab now too:
select rating
Wanna post a correction for this tab? Suggest correction