Oops, an error
Loading. Please wait.

Jingle Bells Tab

354,732 views 243 this week
27 commentsread comments
1 2 3 4 5
x 229
add to favorites
launch autoscroll
font size
0
reset
how to read this tab
guitar tuner
Autoscroll
slow
fast
+/-
esc
set tempo
stop
Help us to improve Ultimate-Guitar.com Take our survey!
×
Author
Difficulty
novice
Jingle Bells
Now, this song is the sweetest Christmas carol ever!
Happy Christmas!



  Part A
   D                                 D
e|-2---2---2-------2---2---2-------|-2---5---------0-2---------------|
B|(3)------------------------------|---------3-----------------------|
G|(2)------------------------------|---------------------------------|
D|(0)------------------------------|---------------------------------|
A|---------------------------------|---------------------------------|
E|---------------------------------|---------------------------------|

   G               D                 E7              A7
 |-3---3---3-----3-3---2---2-----2-|-2---0---0---2---0-------5-------|
 |(0)-------------(3)--------------|(3)-------------(2)--------------|
 |(0)-------------(2)--------------|(1)-------------(0)--------------|
 |(0)-------------(0)--------------|(2)-------------(2)--------------|
 |(x)------------------------------|(x)-------------(0)--------------|
 |(3)------------------------------|(0)------------------------------|

   D                                 D
 |-2---2---2-------2---2---2-------|-2---5---------0-2---------------|
 |(3)------------------------------|---------3-----------------------|
 |(2)------------------------------|---------------------------------|
 |(0)------------------------------|---------------------------------|
 |---------------------------------|---------------------------------|
 |---------------------------------|---------------------------------|

   G               D                 A7              D
 |-3---3---3-----3-3---2---2-----2-|-5---5-------0-------------------|
 |(0)-------------(3)--------------|(5)------8-------3---------------|
 |(0)-------------(2)--------------|(6)-------------(2)--------------|
 |(0)-------------(0)--------------|(5)-------------(0)--------------|
 |(x)------------------------------|(0)------------------------------|
 |(3)------------------------------|---------------------------------|


  Part B
   D                                 D               G
 |-----2---0-----------------------|-----2---0-----------------------|
 |-------------3-------------------|-------------3---0-----------0-0-|
 |-2---------------2-----------2-2-|-2--------------(0)--------------|
 |(0)------------------------------|----------------(0)--------------|
 |---------------------------------|----------------(x)--------------|
 |---------------------------------|----------------(3)--------------|

   G               A7                A7              D
 |-----3---2---0---5---5-------5---|-7---7-------0---2---------------|
 |-0--------------(5)--------------|---------8------(3)--------------|
 |----------------(6)--------------|----------------(2)--------------|
 |----------------(5)--------------|----------------(0)--------------|
 |----------------(0)--------------|---------------------------------|
 |---------------------------------|---------------------------------|

   D                                 D               G
 |-----2---0-----------------------|-----2---0-----------------------|
 |-------------3-------------------|-------------3---0-----------0-0-|
 |-2---------------2-----------2-2-|-2--------------(0)--------------|
 |(0)------------------------------|----------------(0)--------------|
 |---------------------------------|----------------(x)--------------|
 |---------------------------------|----------------(3)--------------|

   G               A7                A7              D
 |-----3---2---0---5---5-------5---|-7---7-------0-------------------|
 |-0--------------(5)--------------|---------8-------3---------------|
 |----------------(6)--------------|----------------(2)--------------|
 |----------------(5)--------------|----------------(0)--------------|
 |----------------(0)--------------|---------------------------------|
 |---------------------------------|---------------------------------|



------------------------------------------------------------------------------
 24th /December /15
 Just mail me at maitinin@gmail.com with questions, comments and corrections!
------------------------------------------------------------------------------
Suggest correction
comments
print report bad tab
27 comments total. Showing first comments.
+2 reply
PunkInDrublic 10 Dec 12, 2005 07:30 AM

Possibly a fem small mistakes in the second verse, but it's a good tab anyway...

+7 reply
alone14 10 Jun 30, 2006 04:26 PM

i haven't learned it yet, but i think what makes this song so awsome is the deep meaning in the lyrics. "what fun it is to ride in a one-horse open sleigh!" sometimes we all feel like the only horse pulling the sleigh, but just remember, someday, us horses will have our rebellion

+1 reply
Maitinin 19,543 Jul 02, 2006 07:14 PM

you're sick! on mondays it's in the good way and on tuesdays I usually eat horse meat for my mourning pudding with that extra spice of roasted chicken feet on thursdays I forgot Wednesday I also sleep nicely muhaha!

guest
You may want to rate the tab now too:
select rating
Wanna post a correction for this tab? Suggest correction