Oops, an error
Loading. Please wait.

Jingle Bells Tab

64,675 views 24 this week
13 commentsread comments
1 2 3 4 5
x 61
add to favorites
launch autoscroll
font size
0
reset
how to read this tab
guitar tuner
Autoscroll
slow
fast
+/-
esc
set tempo
stop
Help us to improve Ultimate-Guitar.com Take our survey!
×
Tuning
E A D G B E
The entire tab with lyrics. 100% correct. Please RATE!

Jingle Bells
Tuning: Standard (E-a-d-g-b-e)


e|---0-------|-------0-------|---1-0-----|-3-3-1---0-|
b|-----3-1---|---------3-1---|-------3-0-|-------3---|
g|-0-------0-|-0-0-0-------2-|-2---------|-----------|
d|-----------|---------------|-----------|-----------|
a|-----------|---------------|-----------|-----------|
E|-----------|---------------|-----------|-----------|

e|---0-------|---0-------|---1-0---3-3-3-3-5-3-1-----3-|
b|-----3-1---|-----3-1---|-------3---------------3-1---|
g|-0-------0-|-0-------2-|-2---------------------------|
d|-----------|-----------|-----------------------------|
a|-----------|-----------|-----------------------------|
E|-----------|-----------|-----------------------------|

e|-0-0-0----0-0-0----0-3-----0-|--1-1-1-1-1-0-0-0-0-----0---3-|
b|-----------------------1-3---|--------------------3-3---3---|
g|-----------------------------|------------------------------|
d|-----------------------------|------------------------------|
a|-----------------------------|------------------------------|
E|-----------------------------|------------------------------|

e|-0-0-0----0-0-0----0-3-----0-|--1-1-1-1-1-0-0-0-3-3-1-----|
b|-----------------------1-3---|------------------------3-1-|
g|-----------------------------|----------------------------|
d|-----------------------------|----------------------------|
a|-----------------------------|----------------------------|
E|-----------------------------|----------------------------|
Suggest correction
comments
print report bad tab
13 comments total. Showing first comments. show 2 bad comments
-1 reply
metal_shredder 30 Dec 21, 2006 12:56 PM

The entire tab with lyrics?

guest
You may want to rate the tab now too:
select rating
Wanna post a correction for this tab? Suggest correction