Oops, an error
Loading. Please wait.
27,108 views 6 this week
3 commentsread comments
1 2 3 4 5
x 9
add to favorites
launch autoscroll
font size
0
reset
how to read this tab
guitar tuner
×
Best way to learn
"Jingle Bells"
Autoscroll
slow
fast
+/-
esc
set tempo
stop
e---------------------------------------|----------------------------------------|
b---------------------------------------|----------------------------------------|
g---------------------------------------|----------------------------------------|
d--0-0-0-----0-0-0-----0-3---------0----|---1-1-1-1-1-0-0-0-0--------0------3----|
a---------------------------1---3-------|-----------------------3-3------3-------|
e---------------------------------------|----------------------------------------|


e--0-0-0----0-0-0----0-3------0---|-----1-1-1-1-1-0-0-0-3-3-1------------------|
b------------------------1--3-----|-----------------------------3--1~~~~~~~----|
g---------------------------------|--------------------------------------------|
d---------------------------------|--------------------------------------------|
a---------------------------------|--------------------------------------------|
e---------------------------------|--------------------------------------------|
Suggest correction
comments
print report bad tab
3 comments total.
0 reply
GazERocker 20 Dec 10, 2008 07:04 AM

Great tab :P

0 reply
davidramone007 10 Dec 21, 2008 12:14 PM

i dont know what type of turning and is that it

0 reply
WingedBull 31 Sep 06, 2009 03:56 AM

It's Standard tuning... EADGBe (you can see the tuning on the left of the TAB...

guest
You may want to rate the tab now too:
select rating
Wanna post a correction for this tab? Suggest correction