Oops, an error
Loading. Please wait.

Jingle Bells Tab

19,185 views 12 this week
no commentswrite comment
1 2 3 4 5
x 4
add to favorites
×
Save as Personal and add changes to this tab that will be seen only by you. Learn more ›
launch autoscroll
font size
0
reset
how to read this tab
guitar tuner
Autoscroll
slow
fast
+/-
esc
set tempo
stop
Author
-----------------------------------------------------------------------------
                                                           Jingle Bells
-----------------------------------------------------------------------------
Tabbed by: Ari Clark
Email: psycopathguy@hotmail.com

This is my first tab so post corrections if I've mucked up somehwere :D

e|---9--------------9----------------10-9---------12-12-10----9-|
B|-----12-10----------12-10---------------12-9-------------12---|
G|-9---------9----9---------11----11----------------------------|
D|--------------------------------------------------------------|
A|--------------------------------------------------------------|
E|--------------------------------------------------------------|


e|---9--------------9----------------10-9----12-12-12-10h12-14-12-10-------|
B|-----12-10----------12-10---------------12-------------------------12-10-|
G|-9---------9----9---------11----11---------------------------------------|
D|-------------------------------------------------------------------------|
A|-------------------------------------------------------------------------|
E|-------------------------------------------------------------------------|

e|-12--9-9-9--9-9-9--9-12-------9----10-10-10--10p9-9-9--9-------9----|
B|------------------------10-12----------------------------12-10---12-|
G|--------------------------------------------------------------------|
D|--------------------------------------------------------------------|
A|--------------------------------------------------------------------|
E|--------------------------------------------------------------------|

e|-12--9-9-9--9-9-9--9-12-------9----10-10-10--10p9-9-9--9h10-12-10-9-------|
B|------------------------10-12---------------------------------------12-10-|
G|--------------------------------------------------------------------------|
D|--------------------------------------------------------------------------|
A|--------------------------------------------------------------------------|
E|--------------------------------------------------------------------------|

Play all that 3 times then finished with tremelo picking these octaves (about 4 times each):

e|-12-12-14-16-17-|
B|----------------|
G|-9--9--11-12-14-|
D|----------------|
A|----------------|
E|----------------|

Suggest correction
comments
print report bad tab
guest
You may want to rate the tab now too:
select rating
Wanna post a correction for this tab? Suggest correction