Oops, an error
Loading. Please wait.

Jolly Old Saint Nicholas Tab

version 1
version 1

Whole song

Interactive

8,548 views 9 this week
no commentswrite comment
1 2 3 4 5
excellent!
x 5
add to favorites
launch autoscroll
font size
0
reset
how to read this tab
guitar tuner
Tab Pro tools
  • play this tab
  • loop segment
  • change instrument
  • show fretboard
  • metronome
×
Best way to learn
"Jolly Old Saint Nicholas"
Autoscroll
slow
fast
+/-
esc
set tempo
stop
Contributor
-----------------------------------------------------------------------------
			     JOLLY OLD SAINT NICHOLAS 
-----------------------------------------------------------------------------
Tabbed by: Fuzzhead17

Tuning:Standard


   c             G             Am	     Em
e|-0--0--0--0--|-------------|-------------|-0--~--~--~--|
B|-1--~--~--~--|-3--3--3--~--|-1--1--1--1--|-0--~--~--~--|
G|-0--~--~--~--|-0--~--~--~--|-2--~--~--~--|-0--~--~--~--|
D|-2--~--~--~--|-0--~--~--~--|-2--~--~--~--|-2--~--~--~--|
A|-3--~--~--~--|-2--~--~--~--|-0--~--~--~--|-2--~--~--~--|
E|-------------|-3--~--~--~--|-------------|-0--~--~--~--|

   F		 C	       G	     G7
e|-------------|-------------|----------0--|-1--~--~--~--|
B|-------------|----1--1--~--|-3--1--3-----|-3--~--~--~--|
G|-2--2--2--2--|-0--~--~--~--|-0--~--~-----|-0--~--~--~--|
D|-3--~--~--~--|-2--~--~--~--|-0--~--~-----|-0--~--~--~--|
A|-3--~--~--~--|-3--~--~--~--|-2--~--~-----|-2--~--~--~--|
E|-1--~--~--~--|-------------|-3--~--~-----|-3--~--~--~--|

   C            G              Am	     Em
e|-0--0--0--0--|-------------|-------------|-0--~--~--~--|
B|-1--~--~--~--|-3--3--3--~--|-1--1--1--1--|-0--~--~--~--|
G|-0--~--~--~--|-0--~--~--~--|-2--~--~--~--|-0--~--~--~--|
D|-2--~--~--~--|-0--~--~--~--|-2--~--~--~--|-2--~--~--~--|
A|-3--~--~--~--|-2--~--~--~--|-0--~--~--~--|-2--~--~--~--|
E|-------------|-3--~--~--~--|-------------|-0--~--~--~--|

   F		 C	       G	     c
e|-------------|-------------|----------0--|-0--~--~--~--|
B|-------------|----1--1--~--|-3--1--3-----|-1--~--~--~--|
G|-2--2--2--2--|-0--~--~--~--|-0--~--~-----|-2--~--~--~--|
D|-3--~--~--~--|-2--~--~--~--|-0--~--~-----|-0--~--~--~--|
A|-3--~--~--~--|-3--~--~--~--|-2--~--~-----|-3--~--~--~--|
E|-1--~--~--~--|-------------|-3--~--~-----|----~--~--~--|
comments
print report bad tab
I want to post or [tab]
guest
You may want to rate the tab now too:
select rating
Please do not post tabs as comments. Select "correction" instead!