Oops, an error
Loading. Please wait.

Joy To The World Tab

version 3
version 3

Video

  • High quality, easy to follow video lesson.
7,712 views 1 this week
1 commentread comment
1 2 3 4 5
x 5
add to favorites
launch autoscroll
font size
0
reset
how to read this tab
guitar tuner
×
Best way to learn
"Joy To The World"
Autoscroll
slow
fast
+/-
esc
set tempo
stop
Author
Misc Christmas Joy to the world
Tabbed by Liam
Email: guitar_rocker_47@hotmail.com
Tuning standard

Have fun guys and merry Christmas to you! – have a good one

e|---------------------------------------------|
B|---------------------------------------------|
G|-14--13--11--9--7--6-4-2---9--11-11-13-13-14-|
D|-12--11---9--7--5--4-2-0---7---9--9-11-11-12-|
A|---------------------------------------------|
E|---------------------------------------------|

e|--------------------------------------------------|
B|--------------------------------------------------|
G|-14--14\13--11--9-9-7--6--14-14\13--11--9-9--7--6-|
D|-12--12\11---9--7-7-5--4--12-12\11---9--7-7--5--4-|
A|--------------------------------------------------|
E|--------------------------------------------------|

e|---------------------------------|--------------------------|
B|---------------------------------|--------------------------|
G|-6-6-6-6--7-7-9--6-4-4-4--4/8--7-|-6\2--4--14-11--9-7-6-4-2-|
D|-4-4-4-4--5-5-7--4-2-2-2--2/6--5-|-4\0--2--12--9--7-5-4-2-0-|
A|---------------------------------|--------------------------|
E|---------------------------------|--------------------------|
Suggest correction
comments
print report bad tab
1 comment total.
0 reply
HendrixCMD 30 Dec 25, 2006 07:38 AM

sounds nothing like it

guest
You may want to rate the tab now too:
select rating
Wanna post a correction for this tab? Suggest correction