Oops, an error
Loading. Please wait.

Joy To The World Tab

version 5
version 5

Video

  • High quality, easy to follow video lesson.
23,431 views 3 this week
6 commentsread comments
1 2 3 4 5
x 19
add to favorites
launch autoscroll
font size
0
reset
how to read this tab
guitar tuner
Autoscroll
slow
fast
+/-
esc
set tempo
stop
Help us to improve Ultimate-Guitar.com Take our survey!
×
Author
Difficulty
novice
e|-----------------------------------------0--0---1-------------------|
B|-----1--0--------------------0--2--2--------------------------------|
G|------------2--0----------------------------------------------------|
D|------------------3--2--0-------------------------------------------|
A|----------------------------3---------------------------------------|
E|--------------------------------------------------------------------|

e|--------------------------------------------------------------------|
B|--1--1--0----------------------1--1--0------------------------------|
G|-------------2--0--0---------------------2--0--0--------------------|
D|------------------------3---2--------------------------3--2---------|
A|--------------------------------------------------------------------|
E|--------------------------------------------------------------------|

e|--------------------------------------------------------------------|
B|---------------------------------------------------------1----------|
G|---------------------0---------------------------------------2---0--|
D|--2--2--2--2--3--------3--2--0------0--0--2--3---0------------------|
A|-----------------------------------------------------3--------------|
E|--------------------------------------------------------------------|

e|-----------------------------0--------------------------------------|
B|-----------------------------1--------------------------------------|
G|-----------------------------0--------------------------------------|
D|--3--2----------3---2--0--2-----------------------------------------|
A|-----------------------------3--------------------------------------|
E|--------------------------------------------------------------------|
Suggest correction
comments
print report bad tab
6 comments total. Showing first comments.
+1 reply
maclll 10 Nov 29, 2008 08:29 PM

On your first bar you have- e|-----------------------------------------0--0---1-------------------|
B|-----1--0--------------------0--2--2--------------------------------|
G|------------2--0----------------------------------------------------|
D|------------------3--2--0-------------------------------------------|
A|----------------------------3---------------------------------------|
E|--------------------------------------------------------------------|
It plays better with this I think e|--------------------------------------------------------------------|
B|-----1--0----------------------------------0--1---1-----------------|
G|------------2--0-------------0--2--2--------------------------------|
D|------------------3--2--0-------------------------------------------|
A|----------------------------3---------------------------------------|
E|--------------------------------------------------------------------|

Thanks for your Tab. I appreciate the work you went through to post it.

0 reply
maclll 10 Nov 29, 2008 08:34 PM


e|-----------------------------------------0--0---1-------------------|
B|-----1--0--------------------0--2--2--------------------------------|
G|------------2--0----------------------------------------------------|
D|------------------3--2--0-------------------------------------------|
A|----------------------------3---------------------------------------|
E|--------------------------------------------------------------------|

e|--------------------------------------------------------------------|
B|-----1--0----------------------------------0--1---1-----------------|
G|------------2--0-------------0--2--2--------------------------------|
D|------------------3--2--0-------------------------------------------|
A|----------------------------3---------------------------------------|
E|--------------------------------------------------------------------|

Thanks for your Tab. I appreciate the work you went through to post it.

+3 reply
Jk3y 46 Dec 03, 2008 09:23 PM

e|--------------------------------------------------------------------|
B|-----1--0-------------------------------0-0-1-----------------------|
G|------------2--0-------------0--2--2--------------------------------|
D|------------------3--2--0-------------------------------------------|
A|----------------------------3---------------------------------------|
E|--------------------------------------------------------------------|

e|--------------------------------------------------------------------|
B|--1--1--0----------------------1--1--0------------------------------|
G|-------------2--0--0---------------------2--0--0--------------------|
D|------------------------3---2--------------------------3--2---------|
A|--------------------------------------------------------------------|
E|--------------------------------------------------------------------|

e|--------------------------------------------------------------------|
B|---------------------------------------------------------1----------|
G|-----------------0------------------------------------------2---0---|
D|--2--2--2--2--3--------3--2--0-----0--0--0--2--3---0----------------|
A|-----------------------------------------------------3--------------|
E|--------------------------------------------------------------------|

e|-----------------------------0--------------------------------------|
B|-----------------------------1--------------------------------------|
G|-----------------------------0--------------------------------------|
D|--3--2----------3---2--0--2-----------------------------------------|
A|-----------------------------3--------------------------------------|
E|--------------------------------------------------------------------|

It's right but you tabbed it on the wrong string :P
thanks for tabbing, I corrected the small mistake, 5 stars

guest
You may want to rate the tab now too:
select rating
Wanna post a correction for this tab? Suggest correction