Oops, an error
Loading. Please wait.

Joy To The World Tab

version 6
version 6

Video

  • High quality, easy to follow video lesson.
7,911 views 18 this week
no commentswrite comment
1 2 3 4 5
x 7
add to favorites
launch autoscroll
font size
0
reset
how to read this tab
guitar tuner
Autoscroll
slow
fast
+/-
esc
set tempo
stop
Help us to improve Ultimate-Guitar.com Take our survey!
×
Joy to the World the Lord has come!

   C                       G  C
E|--------------------------------|
B|--1---0---------------------1---|
G|--0------2--0---------------0---|
D|--2---------------3--2---0--2---|
A|--3------------3---------2--3---|
E|-------------------------3------|

                            C
E|-------------------------------------------|
B|--------------------------1----------------|
G|--------2--------4--------0--------0-------|
D|----2---------0--------0--2------2---2-----|
A|--3---------0--------0----3----3-------3---|
E|--------1--------3-------------------------|


     C  C                   
E|-------------------------|
B|---1--1----0-------------|
G|---0--0---------2--0-0---|(2x)
D|---2--2--0---0-----0-0---|
A|---3--3------------------|
E|-------------------------|

        C C C               G G G      
E|-------------------------------------------------|
B|-------------------------------------------------|
G|----------------0--------------------------------|
D|---3--2-2-2-2-3------3p2--0-0-0-0h2h3----3p2p0---|
A|------3-3-3-------3--3----2-2-2--------2-2-------|
E|--------------------------3-3-3------------------|

         C             G     G   C
E|----------------------------------------|
B|-------1-----------------------1--------|
G|-------0---2-0-----------------0--------|(2x) on 2nd time end on C
D|-------2--------3-2--2h3p2-----2----2---| without the extra C and E notes
A|---3---3-------------3------2--3--3-----|
E|----------------------------3-----------|




symbols
h=hammer-on
p=pull-off

Merry Christmas
Suggest correction
comments
print report bad tab
guest
You may want to rate the tab now too:
select rating
Wanna post a correction for this tab? Suggest correction