Oops, an error
Loading. Please wait.

Joy To The World Tab

version 7
version 7

Video

  • High quality, easy to follow video lesson.
4,082 views 1 this week
no commentswrite comment
1 2 3 4 5
2 more votes to show rating
add to favorites
launch autoscroll
font size
0
reset
how to read this tab
guitar tuner
Autoscroll
slow
fast
+/-
esc
set tempo
stop
Help us to improve Ultimate-Guitar.com Take our survey!
×
Tabbed by: Eaglestalon101, Chris
Email: Eaglestalon101@yahoo.com

Tuning: Dropped C

This has a bit of a metal feel to it, yet a little basic....It's my simple version of 
so enjoy


|----------------------------|----------------------------|
|----------------------------|----------------------------|
|-15~-14-12------------------|----------------------------|
|----------15~-13-12---------|13-13h15~15-15/17~17-17/18~-|
|-------------------15-15p13~|---------------------------\|
|----------------------------|---------------------------\|

|-------------------------|------------------------|
|-------------------------|------------------------|
|-13-13-12-10-------------|13-13-12-10-------------|
|-------------13-13-11p10~|------------13-13-11p10~|
|-------------------------|------------------------|
|-------------------------|------------------------|

|------------------------------------------------|
|------------------------------------------------|
|------------------------------------------------|I'm not quite sure if
|12-12-12-12h13-13/15~15p13-12\10-10-10-10h12/13~|this part is right, but I
|------------------------------------------------|play it anyway, it sounds
|------------------------------------------------|pretty close

|-----------------------------------------|
|-----------------------------------------|
|--------15+-13-12-10------------------10-| Play slowly towards the last half
|13p12-10-------------13--12h13p12--10--8-| strum the ending chord slowly
|---------------------------------------8-|
|-----------------------------------------|

I think it's all right....if not, I'm open for suggestions and for some reason I'm sure 
can add a little medley somewhere in there....

| /  slide up
| \  slide down
| h  hammer-on
| p  pull-off
| ~  vibrato
| +  harmonic
| x  Mute note
Suggest correction
Give kudos to tab author, rate the tab!
1 2 3 4 5
comments
print report bad tab
guest
You may want to rate the tab now too:
select rating
Wanna post a correction for this tab? Suggest correction