Oops, an error
Loading. Please wait.

O Come All Ye Faithful Bass

version 3
version 3

Whole song

124 views 3 this week
no commentswrite comment
1 2 3 4 5
3 more votes to show rating
add to favorites
launch autoscroll
font size
0
reset
guitar tuner
Autoscroll
slow
fast
+/-
esc
set tempo
stop
Author
Tuning
E A D G
---------------------------------------------------------------------
                Oh Come All Ye Faithful - Public Domain
---------------------------------------------------------------------
Tabbed by: RagnaarMN
Tuning: Standard
Key of G Major, 1 sharp

G|----------------|
D|----------------|
A|----------------|
E|------------3---|

G|----------------|----------------|0-------0-------|----------------|
D|----------------|0-------0---4---|----4-----------|0-------1---2---|
A|------------2---|----------------|------------3---|----------------|
E|3-------3-------|----------------|----------------|----------------|

G|----------------|----------------|----------------|----------------|
D|2---2---0---4---|0---------------|----------------|0---------------|
A|----------------|----2---0-------|0-------0-------|----------------|
E|----------------|------------3---|----------------|----------------|

G|----------------|----------------|----------------|----------------|
D|----------------|----------------|4---1---2-------|0-----0-0-------|
A|2-------0-------|0---------------|------------3---|----------------|
E|------------3---|--3-2---3-------|----------------|----------------|

G|----------------|----------------|----------------|----------------|
D|----------------|----------------|----------------|--------0-------|
A|----0---2---3---|----------------|------------0---|------------2---|
E|3---------------|3-----------3---|3---1---3-------|3---------------|

G|2---0-----------|----------------|----------------|----------------|
D|--------4---2---|0---------------|0-------0-------|----------------|
A|----------------|----3---2---3---|----------------|----------------|
E|----------------|----------------|----------------|3---------------|


======================================================================
Suggest correction
Give kudos to tab author, rate the tab!
1 2 3 4 5
comments
print report bad tab
guest
You may want to rate the tab now too:
select rating
Wanna post a correction for this tab? Suggest correction