Oops, an error
Loading. Please wait.

O Come All Ye Faithful Tab

version 4
version 4
11,467 views 3 this week
no commentswrite comment
1 2 3 4 5
x 9
add to favorites
launch autoscroll
font size
0
reset
how to read this tab
guitar tuner
Autoscroll
slow
fast
+/-
esc
set tempo
stop
Author
Difficulty
Tuning
novice
E A D G B E
OH, COME, ALL YE FAITHFUL

     This version of the song sounds amazing. This is the Mormon Hymn arrangement, 
but it sounds fantastic. It's in standard tuning. Enjoy! (First tab.)

Majestically Q=120
4/4
Gtr I
   Q   H    Q   Q   H    H    Q  Q  Q  Q   H   Q  Q
e|---|------------|--------|-------------|------------|
B|---|------------|--------|--0-----0--1-|-0----------|
G|-0-|-0--------0-|-2------|-----2-------|-----2--0---|
D|-0-|-0----0-----|-0----0-|--0--0--0--2-|-0---0--0---|
A|---|----------2-|--------|-------------|------------|
E|---|------------|--------|-------------|------------|


   Q   Q   Q  Q   Q  Q  Q  Q   H    Q.   E   H.      Q
e|--------------|------------|-------------|--------------|
B|--------------|----------0-|-------------|--------------|
G|-0--(0)-------|----0--2----|-------------|--------------|
D|---------4--2-|-4--0--0--0-|-4----2----0-|-0------------|
A|-2---4---5--3-|-5----------|-5----4------|--------------|
E|--------------|------------|-------------|--------------|


   H    E  E  Q   Q   Q   H   Q  Q  Q  Q   Q.   E  Q  Q   Q  Q  Q  Q
e|--------------|-----------|------------|--------------|------------|
B|-3----1-(1)-0-|-1--(1)--0-|----0-------|--------------|------------|
G|------------0-|---------0-|-2-----0--2-|------------0-|-0-----0--2-|
D|-0----2--4----|-2---4-----|-0--0--2--2-|-4----2--0--0-|-0--4--0--0-|
A|--------------|-----------|------------|-5---(5)------|----5-------|
E|--------------|-----------|------------|--------------|------------|


   H    Q  Q   Q  Q  Q  Q   H    Q  Q   E  E  Q  Q  Q
e|-----------|------------|-----------|------------------|
B|---------0-|-0-----0--1-|-0-------0-|-1-(1)-0----------|
G|-0---------|----2-------|-0----2--0-|-------0--2--0----|
D|-0----0--0-|-0--0--0--4-|------4----|-2--4-----0-------|
A|-----------|------------|-----------|-------------4----|
E|-----------|------------|-----------|------------------|


   H    Q  Q   H    Q.   E   H.
e|-----------|-------------|-------|
B|---------1-|-0-----------|-------|
G|------0----|------2----0-|-0-----|
D|-4----0--2-|-0-----------|-------|
A|-5---------|------3----2-|-2-----|
E|-----------|-------------|-------|


Duration Legend
---------------
W - whole; H - half; Q - quarter; E - 8th; S - 16th; T - 32nd; X - 64th; a - acciaccatura
+ - note tied to previous; . - note dotted; .. - note double dotted
Uncapitalized letters represent notes that are staccato (1/2 duration)
Irregular groupings are notated above the duration line
Duration letters will always appear directly above the note/fret number it represents the
duration for.  Duration letters with no fret number below them represent rests.  Multi-
bar rests are notated in the form Wxn, where n is the number of bars to rest for.  Low
melody durations appear below the staff

Tablature Legend
----------------
 h   - hammer-on
 p   - pull-off
 b   - bend
 pb  - pre-bend
 r   - bend release (if no number after the r, then release immediately)
 /\  - slide into or out of (from/to "nowhere")
 s   - legato slide
 S   - shift slide
  - natural harmonic
[n]  - artificial harmonic
n(n) - tapped harmonic
 ~   - vibrato
 tr  - trill
 T   - tap
 TP  - trem. picking
 PM  - palm muting
\n/  - tremolo bar dip; n = amount to dip
 \n  - tremolo bar down
 n/  - tremolo bar up
/n\  - tremolo bar inverted dip
 =   - hold bend; also acts as connecting device for hammers/pulls
 <>  - volume swell (louder/softer)
 x   - on rhythm slash represents muted slash
 o   - on rhythm slash represents single note slash

Misc Legend
-----------
 |  - bar
Suggest correction
comments
print report bad tab
guest
You may want to rate the tab now too:
select rating
Wanna post a correction for this tab? Suggest correction