Oops, an error
Loading. Please wait.

O Come O Come Emmanuel Tab

version 5
version 5

Whole song

Interactive

2,033 views 6 this week
no commentswrite comment
1 2 3 4 5
x 11
add to favorites
×
Save as Personal and add changes to this tab that will be seen only by you. Learn more ›
launch autoscroll
font size
0
reset
how to read this tab
guitar tuner
Autoscroll
slow
fast
+/-
esc
set tempo
stop
Author
Difficulty
Tuning
novice
E A D G B E
Made this tab by ear, hope it is correct and you enjoy!
Standard Tuning


Stave 1:

O come o come emmanuel
And ransom captive Israel

E|--------------------------------------------------------------|
B|--------------------------------------------------------------|
G|-----0--4--4--4--2--5--4--2--0--2--4--0-----------------------|
D|--2--------------------------------------2--5--7--4--2--0--2--|
A|--------------------------------------------------------------|
E|--------------------------------------------------------------|

Stave 2:

That mourns in lonely exile here
Until the Son of God appears

E|-----------------------------------------------------------|
B|-----------------------------------------------------------|
G|--2--2-----------------------0--2--4--4--4--2--5--4--2--0--|
D|--------2--2--4--5--4--2--0--------------------------------|
A|-----------------------------------------------------------|
E|-----------------------------------------------------------|

Stave 3:

Rejoice rejoice
Emmanuel shall come to thee oh Israel

E|--------------------------------------------------------------|
B|--------------------------------------------------------------|
G|--7--7--4--4--4--2--5--4--2--0--2--4--0-----------------------|
D|-----------------------------------------2--5--7--4--2--0--2--|
A|--------------------------------------------------------------|
E|--------------------------------------------------------------|
Suggest correction
comments
print report bad tab
guest
You may want to rate the tab now too:
select rating
Wanna post a correction for this tab? Suggest correction