Oops, an error
Loading. Please wait.

O Holy Night intro tab

version 1
version 1

Intro

Whole song

Interactive

35,363 views 3 this week
6 commentsread comments
1 2 3 4 5
x 12
add to favorites
×
Save as Personal and add changes to this tab that will be seen only by you. Learn more ›
×
You can save this tab as Personal to edit and correct it or add notes. All changes will be seen only by you. Learn more »
launch autoscroll
font size
0
reset
how to read this tab
guitar tuner
edit
Autoscroll
slow
fast
+/-
esc
set tempo
stop
-------0---------|------0---------|-----5--5--2-|-3--3-----
----3-----3---0--|----3---3--0----|-------------|-------3---
-----------------|----------------|-------------|-----------
-----------------|----------------|-------------|-----------
-----------------|----------------|-------------|-----------
-----------------|----------------|-------------|-----------


-0---0--0----3---2--0------0-------|--5--5--5---8---5---2---3---7------
------------------------3----3---0-|-----------------------------------
-----------------------------------|-----------------------------------
-----------------------------------|-----------------------------------
-----------------------------------|-----------------------------------
-----------------------------------|-----------------------------------

-3------------|----------------------------------------------------------
----3--0--3---|-1----2----0----------------------------------------------
--------------|----------------------------------------------------------
--------------|----------------------------------------------------------
--------------|----------------------------------------------------------
--------------|----------------------------------------------------------

merry chrismas to all

Feliz navidad!!!!

            
            
Suggest correction
Creating personal tab
Creating personal tab
You can edit any tab online and save it as your Personal.

You can edit, replace or remove any tab part or add personal notes – all changes will be seen only by you.

Personal tabs can be accessed anytime from any device, even offline.
Learn more »
comments
print report bad tab
6 comments total. Showing first comments.
0 reply
Collectables 10 Dec 16, 2002 07:00 PM

The Ending just didn't sound right so I just moved the last to notes one string lower.

-3------------|----------------------------------------------------------
----3--0--3---|-1--------------------------------------------2----0------
--------------|----------------------------------------------------------
--------------|----------------------------------------------------------
--------------|----------------------------------------------------------
--------------|----------------------------------------------------------


Enjoy.

0 reply
zoffi 10 Dec 16, 2002 07:00 PM

I don't think the end is correct, try this instead.

-------------------
-1-----------------
-----2----0--------

0 reply
tntwolf55 10 May 08, 2003 08:00 PM

Im sorry, but this is silent night. Not O Holy Night. It does sound good, except for the end where you should play the last 2 notes, one string up.

guest
Wanna post a correction for this tab? Suggest correction