Oops, an error
Loading. Please wait.

Oh Holy Night bass

790 views 1 this week
1 commentread comment
1 2 3 4 5
3 more votes to show rating
add to favorites
×
Save as Personal and add changes to this tab that will be seen only by you. Learn more ›
×
You can save this tab as Personal to edit and correct it or add notes. All changes will be seen only by you. Learn more »
launch autoscroll
font size
0
reset
guitar tuner
edit
Autoscroll
slow
fast
+/-
esc
set tempo
stop
Author
---------------------------------------------------------------------
                   Oh Holy Night - Adolphe Adam
---------------------------------------------------------------------
Tabbed by: RagnaarMN
Tuning: Standard
Key of C Major

  Intro:
G|----------------|----------------|----------------|---------------|
D|--------3-------|----------------|------------0---|---------------|
A|3---------------|----------------|----------------|3--------------|
E|----------------|0-----------3---|0---------------|---------------|


G|----------------|----------------|----------------|
D|----------------|----------------|----------------|
A|----------------|3---------------|3---------------|
E|3-------0-------|--------1-------|--------3-------|
  Oh      Night    Stars

G|----------------|----------------|----------------|----------------|
D|----------------|----------------|----------------|----------------|
A|3-------3-------|----------------|--------0-------|3---------------|
E|----------------|3---1---0-------|3---------------|--------3-------|

G|----------------|----------------|----------------|----------------|
D|----------------|----------------|--------0-------|----------------|
A|--------2-------|----------------|3---------------|0---------------|
E|0---------------|0-----------3---|----------------|--------3-------|
                       Hold

G|----------------|----------------|----------------|----------------|
D|--------0-------|----------------|----------------|----------------|
A|----------------|0---------------|3-----------0---|2-----------2---|
E|3---------------|------------3---|----------------|----------------|
                     Slow

G|----------------|----------------|----------------|----------------|
D|0---------------|----------------|--------0-------|----------------|
A|--------0-------|3-----------3---|----------------|3-------2-------|
E|----------------|----------------|0---------------|----------------|

G|----------------|----------------|----------------|----------------|
D|--------0-------|----------------|----------------|------------0---|
A|3---------------|3---------------|----------------|----------------|
E|----------------|------------1---|0-----------3---|0---------------|
                                                             Slow
G|----------------|----------------|
D|----------------|----------------|
A|3-------2---3---|3---------------|
E|----------------|----------------|


There are many versions of this song. Timing can speed up and slow down.
Credit to Peter Edvinsson.
======================================================================

            
            
Suggest correction
Creating personal tab
Creating personal tab
You can edit any tab online and save it as your Personal.

You can edit, replace or remove any tab part or add personal notes – all changes will be seen only by you.

Personal tabs can be accessed anytime from any device, even offline.
Learn more »
Give kudos to tab author, rate the tab!
1 2 3 4 5
comments
print report bad tab
1 comment total.
0 reply
zzcoldspikeszz 10 Dec 14, 2016 04:15 PM

didn't like this contribution

guest
You may want to rate the tab now too:
select rating
Wanna post a correction for this tab? Suggest correction