Oops, an error
Loading. Please wait.

Oh Holy Night Tab

262 views 102 this week
no commentswrite comment
1 2 3 4 5
3 more votes to show rating
add to favorites
launch autoscroll
font size
0
reset
how to read this tab
guitar tuner
Autoscroll
slow
fast
+/-
esc
set tempo
stop
Help us to improve Ultimate-Guitar.com Take our survey!
×
Author
Difficulty
novice
Key of D Major

[Verse]
E|---------------------------------------------------|
B|---------------------------------------------------|
G|---------------------------------------------------|
D|-----7-7---7-9-9----9-12--7-7-------------7--------|
A|-9-9-------------10-----------9-7-5--9-10---10-5---|
E|---------------------------------------------------|

E|---------------------------------------------------------|
B|---------------------------------------------------------|
G|---------------------------------------------------------|
D|-------7-7---7-9-9----9-12--7-7-6---11--7-9-11-12-11-----|
A|---9-9-------------10-------------9------------------9---|
E|-7-------------------------------------------------------|

E|---------------------------------------------------|
B|---------------------------------------------------|
G|---------------------------------------------------|
D|-7-7-9---7-9-7-12----9-7--7-7-9----7-9-7-12----7---|
A|-------7------------9------------7------------9----|
E|---------------------------------------------------|

[Chorus 1]
E|---------------------------------------------------------------------|
B|---------------------------------------------------------------------|
G|--------------------------------------11-9---------------------------|
D|-12---11-9-11--11-14---9-9-9--12---12------7-12-11-9-7-7---7-9-7-7---|
A|---------------------------------------------------------------------|
E|---------------------------------------------------------------------|

E|-----------------------------|
B|-----------------------------|
G|----------11-----------------|
D|-12-14------14-12--11-12-----|
A|-------12----------------7---|
E|-----------------------------|

[Chorus 2]
E|-------------------------------------------------------------------------|
B|-------------------------------------------------------------------------|
G|------------------------12-11-9----9-11--11-11-9-------------------------|
D|-12---11-9-11---11-14-----------12---------------7-12--11-9-7--7-9-7-7---|
A|-------------------------------------------------------------------------|
E|-------------------------------------------------------------------------|

E|------------------------------------|
B|--------10--------------------------|
G|-7-9----------9---------------------|
D|------7---------12---11-12--14-12---|
A|------------------------------------|
E|------------------------------------|
Suggest correction
Give kudos to tab author, rate the tab!
1 2 3 4 5
comments
print report bad tab
guest
You may want to rate the tab now too:
select rating
Wanna post a correction for this tab? Suggest correction