Oops, an error
Loading. Please wait.

Rudolph The Red-Nosed Reindeer Tab

version 3
version 3

Whole song

Interactive

8,821 views 111 this week
1 commentread comment
1 2 3 4 5
x 5
add to favorites
launch autoscroll
font size
0
reset
how to read this tab
guitar tuner
Autoscroll
slow
fast
+/-
esc
set tempo
stop
Help us to improve Ultimate-Guitar.com Take our survey!
×
                      RUDOLPH THE RED-NOSED REINDEER
                     Arranged for guitar by Mark Leslie
                  * * * * * * * * * * * * * * * * * * * *           <----------------------------- repeat -->

e|--------|---------------------|------------------|
B|-----0--|--1---------0--------|------------------|
G|--2-----|--2--2------0--0-----|--2---------2--0--|
D|--------|--3-----3---2-----2--|--3--3------2-----|
A|--------|---------------------|--5-----5---3-----|
E|--------|---------------------|------------------|

  You Know  Dasher +  Dancer +    Prancer + Vixen....


|-----------------|---------------|------------------|-------------------|
|-----------------|---------------|------------------|-------------------|
|-----------------|--2------2--4--|--5--5---5--4--2--|-0------0----------|
|--2---2---2---2--|--2------2-----|--4------4--------|-0------3----------|
|--3-------3------|--3------------|--5------5--------|-2------2----------|
|--5-------5------|---------------|------------------|--------3----------|

   But do you re-  call   the most famous reindeer of  all?


|--------------------|-----------|---------------------|-----------------|
|-----------------1--|-----------|------------------1--|---0-------------|
|--0---2---0---------|--2----0---|--0--2--0--2--0---2--|---0-------------|
|--2-----------2-----|--2--------|--2-----------2---1--|---0-------------|
|--3-----------3-----|--3--------|--3-----------3------|-----------------|
|--------------3-----|-----------|---------------------|-----------------|

  Rudolph the red nosed reindeer,  had a ver-y shin-y     nose


|-------------------|----------|-------------------------|---------------|
|----------------0--|----------|-------------------------|---------------|
|-----0-------------|--2----0--|--0---2---0---2---0---2--|---0-----------|
|--3-----3---0------|--0-------|--0---------------1------|---2-----------|
|--2---------2------|--2-------|--2---------------2------|---3-----------|
|--3---------3------|----------|-------------------------|---------------|

 And if you  ev--er    saw  it, you would ev-en  say  it   glows


|--------------------|-----------|------------------------|--------------|
|-----------------1--|-----------|---------------------1--|---0----------|
|--0---2---0---------|--2----0---|--0--2---0----2--0---2--|---0----------|
|--2-----------2-----|--2--------|--2--------------2---1--|---0----------|
|--3-----------3-----|--3--------|--3--------------3------|--------------|
|--------------3-----|-----------|------------------------|--------------|

  All of  the  other    reindeer  used to laugh + call him  names


|-------------------|----------|-------------------------|---------------|
|----------------0--|----------|----------------------3--|---1-----1-----|
|-----0-------------|--2----0--|--0---2---0---2----------|---0-----3-----|
|--3-----3---0------|--0-------|--0---------------0------|---2-----2-----|
|--2---------2------|--2-------|--2---------------2------|---------3-----|
|--3---------3------|----------|------------------3------|---------------|

 They never let poor   Rudolph   join in   any    reindeer  games


|-----------------|---------------|----------------|---------------------|
|----------1------|---------------|----------------|---------2-----------|
|--2---2---2---2--|--0---------0--|-----2---0------|---------3-----------|
|--3-------3------|--2----2----2--|--3------0---3--|--2------2-----------|
|--3--------------|--3---------3--|--5------2------|--3------------------|
|-----------------|---------------|----------------|--3------------------|

 Then one  fogg-y   Christmas  eve   Santa came to   say


|-----------------|---------------|--------------------|-----------------|
|-----------------|--0---0---0----|--1----1----0-------|-----------------|
|----------0---2--|--0-------1----|--0---------2----2--|--0--------------|
|--0---2---0------|--0-------0----|--2---------0-------|--0----3----0----|
|--2-------2------|---------------|--0-----------------|--2---------2----|
|--3--------------|---------------|--------------------|------------3----|

  Rudolph with your nose so bright  Won't you guide my  sleigh tonight?


|--------------------|-----------|--------------------------|------------|
|-----------------1--|-----------|-----------------------1--|---0--------|
|--0---2---0---------|--2----0---|--0---2---0---2---0----2--|---0--------|
|--2-----------2-----|--2--------|--2---------------2----1--|---0--------|
|--3-----------3-----|--3--------|--3---------------3-------|------------|
|--------------3-----|-----------|--------------------------|------------|

 Then how the reindeer loved him   as they shouted  out with   glee


|----------------------|----------|--------------------------|--0--------|
|-------------------0--|----------|-----------------------3--|--1--------|
|------0---------------|--2----0--|--0----2---0---2---0---0--|--0--------|
|--3-------3---0-------|--3-------|--0----------------0---0--|--2--------|
|--2-----------2-------|--2-------|--2----------------2---2--|--3--------|
|--3-----------3-------|----------|-------------------3------|-----------|

  Rudloph the red nosed  reindeer  you'll go down in his--to---ry!

*_*_*_*_*_*_*_*_*_*_*_*_*_*_*_*_*_*_*_*_*_*_*_*_*_*_*_*_*_*_*_*_*_*_*
                      27th Floor Productions
Mark & Nancy Leslie       PO Box 11737         email: mleslie@use.com
                        Indpls, IN 46201
*_*_*_*_*_*_*_*_*_*_*_*_*_*_*_*_*_*_*_*_*_*_*_*_*_*_*_*_*_*_*_*_*_*_*
Suggest correction
comments
print report bad tab
1 comment total.
0 reply
Incubus35626 113 Nov 29, 2004 12:00 AM

very good, i needed this 4 a test in guitar class. who gives a *** if im 2 lazy 2 figure this out on my own. guitar class is way 2
f u c k i n easy

guest
You may want to rate the tab now too:
select rating
Wanna post a correction for this tab? Suggest correction