Oops, an error
Loading. Please wait.

Rudolph The Red-Nosed Reindeer Tab

version 4
version 4

Whole song

Interactive

63,552 views 27 this week
7 commentsread comments
1 2 3 4 5
excellent!
x 30
add to favorites
launch autoscroll
font size
0
reset
how to read this tab
guitar tuner
Autoscroll
slow
fast
+/-
esc
set tempo
stop
Help us to improve Ultimate-Guitar.com Take our survey!
×
Author
Rudolph The Red-Nosed Reindeer

E|-----0-2-0----5-2-0--------------0-2-0-2-0-5-4----------|
B|-------------2------------------------------------------|
G|--------------------------------------------------------|
D|--------------------------------------------------------|
A|--------------------------------------------------------|
E|--------------------------------------------------------|
							   
E|-----------------4-2-0--------------0-2-0-2-0--2--------|
B|-----3-5-3-0-----------------------------------------2--|
G|--------------------------------------------------------|
D|--------------------------------------------------------|
A|--------------------------------------------------------|
E|--------------------------------------------------------|
							   
E|-----0-2-0----5-2-0--------------0-2-0-2-0-5-4----------|
B|-------------2------------------------------------------|
G|--------------------------------------------------------|
D|--------------------------------------------------------|
A|--------------------------------------------------------|
E|--------------------------------------------------------|
							   
E|-----------------4-2-0--------------0-2-0-2-0-7-5-------|
B|-----3-5-3-0--------------------------------------------|
G|--------------------------------------------------------|
D|--------------------------------------------------------|
A|--------------------------------------------------------|
E|--------------------------------------------------------|
							   
E|------2-2-5-2-0---0-------------------------------------|
B|-------------------2----------3-7-5-3-2-----------------|
G|--------------------------------------------------------|
D|--------------------------------------------------------|
A|--------------------------------------------------------|
E|--------------------------------------------------------|
							   
E|--------------------------------------------------------|
B|-------0-2-5-7-9-9-9-----10-10-9-7-5-3-2----------------|
G|--------------------------------------------------------|
D|--------------------------------------------------------|
A|--------------------------------------------------------|
E|--------------------------------------------------------|
							   
E|-----0-2-0----5-2-0--------------0-2-0-2-0-5-4----------|
B|-------------2------------------------------------------|
G|--------------------------------------------------------|
D|--------------------------------------------------------|
A|--------------------------------------------------------|
E|--------------------------------------------------------|
							   
E|-----------------4-2-0--------------0-2-0-2-0-7-5-------|
B|-----3-5-3-0--------------------------------------------|
G|--------------------------------------------------------|
D|--------------------------------------------------------|
A|--------------------------------------------------------|
E|--------------------------------------------------------|

*****************************************************

          |-----------------repeat-----------------|
e|--------|---------------------|------------------|
B|-----0--|--1---------0--------|------------------|
G|--2-----|--2--2------0--0-----|--2---------2--0--|
D|--------|--3-----3---2-----2--|--3--3------2-----|
A|--------|---------------------|--5-----5---3-----|
E|--------|---------------------|------------------|
  You Know  Dasher +  Dancer +    Prancer + Vixen....

|-----------------|---------------|------------------|-------------------|
|-----------------|---------------|------------------|-------------------|
|-----------------|--2------2--4--|--5--5---5--4--2--|-0------0----------|
|--2---2---2---2--|--2------2-----|--4------4--------|-0------3----------|
|--3-------3------|--3------------|--5------5--------|-2------2----------|
|--5-------5------|---------------|------------------|--------3----------|
   But do you re-  call   the most famous reindeer of  all?

|--------------------|-----------|---------------------|-----------------|
|-----------------1--|-----------|------------------1--|---0-------------|
|--0---2---0---------|--2----0---|--0--2--0--2--0---2--|---0-------------|
|--2-----------2-----|--2--------|--2-----------2---1--|---0-------------|
|--3-----------3-----|--3--------|--3-----------3------|-----------------|
|--------------3-----|-----------|---------------------|-----------------|
  Rudolph the red nosed reindeer,  had a ver-y shin-y     nose

|-------------------|----------|-------------------------|---------------|
|----------------0--|----------|-------------------------|---------------|
|-----0-------------|--2----0--|--0---2---0---2---0---2--|---0-----------|
|--3-----3---0------|--0-------|--0---------------1------|---2-----------|
|--2---------2------|--2-------|--2---------------2------|---3-----------|
|--3---------3------|----------|-------------------------|---------------|
 And if you  ev--er    saw  it, you would ev-en  say  it   glows

|--------------------|-----------|------------------------|--------------|
|-----------------1--|-----------|---------------------1--|---0----------|
|--0---2---0---------|--2----0---|--0--2---0----2--0---2--|---0----------|
|--2-----------2-----|--2--------|--2--------------2---1--|---0----------|
|--3-----------3-----|--3--------|--3--------------3------|--------------|
|--------------3-----|-----------|------------------------|--------------|
  All of  the  other    reindeer  used to laugh + call him  names

|-------------------|----------|-------------------------|---------------|
|----------------0--|----------|----------------------3--|---1-----1-----|
|-----0-------------|--2----0--|--0---2---0---2----------|---0-----3-----|
|--3-----3---0------|--0-------|--0---------------0------|---2-----2-----|
|--2---------2------|--2-------|--2---------------2------|---------3-----|
|--3---------3------|----------|------------------3------|---------------|
 They never let poor   Rudolph   join in   any    reindeer  games

|-----------------|---------------|----------------|---------------------|
|----------1------|---------------|----------------|---------2-----------|
|--2---2---2---2--|--0---------0--|-----2---0------|---------3-----------|
|--3-------3------|--2----2----2--|--3------0---3--|--2------2-----------|
|--3--------------|--3---------3--|--5------2------|--3------------------|
|-----------------|---------------|----------------|--3------------------|
 Then one  fogg-y   Christmas  eve   Santa came to   say

|-----------------|---------------|--------------------|-----------------|
|-----------------|--0---0---0----|--1----1----0-------|-----------------|
|----------0---2--|--0-------1----|--0---------2----2--|--0--------------|
|--0---2---0------|--0-------0----|--2---------0-------|--0----3----0----|
|--2-------2------|---------------|--0-----------------|--2---------2----|
|--3--------------|---------------|--------------------|------------3----|
  Rudolph with your nose so bright  Won't you guide my  sleigh tonight?

|--------------------|-----------|--------------------------|------------|
|-----------------1--|-----------|-----------------------1--|---0--------|
|--0---2---0---------|--2----0---|--0---2---0---2---0----2--|---0--------|
|--2-----------2-----|--2--------|--2---------------2----1--|---0--------|
|--3-----------3-----|--3--------|--3---------------3-------|------------|
|--------------3-----|-----------|--------------------------|------------|
 Then how the reindeer loved him   as they shouted  out with   glee

|----------------------|----------|--------------------------|--0--------|
|-------------------0--|----------|-----------------------3--|--1--------|
|------0---------------|--2----0--|--0----2---0---2---0---0--|--0--------|
|--3-------3---0-------|--3-------|--0----------------0---0--|--2--------|
|--2-----------2-------|--2-------|--2----------------2---2--|--3--------|
|--3-----------3-------|----------|-------------------3------|-----------|
  Rudloph the red nosed  reindeer  you'll go down in his--to---ry!

**************************************************************************

G                     G                  
Rudolph the red-nosed rein-deer (rein-deer)

G                 D7                  
Had a very shi-ny nose (like a light bulb)

D7                 D7            
And if you e - ver saw it  (saw it)

D7                     G                    
You would even say it  glows (like a flash light)



G                 G                 
All of the oth-er rein-deer (rein-deer)

G                          D7                      
Used to laugh and call him names (like Pin-no-chi-o)

D7                      D7             
They would-n't let poor Ru-dolph (Ru-dolph)

D7                    G                     
Join in any rein-deer games (like Mo-nop-o-ly) 



C               G                   
Then one fog-gy Christ-mas Eve 

D7             G           
San-ta came to say (Ho Ho Ho)

D                 D       B7     
Rudolph with your nose so bright 

Em        A7       D7              
Won't you guide my sleigh to-night?



G                      G                 
Then all the rein-deer loved him (loved him)

G                         D7             
And they shouted out with glee (yip-pee)

D7                    D7               
Rudolph the red-nosed rein-deer (rein-deer)

D7                       G                         
You'll go down in histor-y  (like George Washing-ton)
Suggest correction
comments
print report bad tab
7 comments total. Showing first comments.
+1 reply
Dirge 10 wrote on December 11 2004, 12:00 am

Awesome Tab!

0 reply
TempoTantrum 145 wrote on December 12 2004, 12:00 am

Very nicely done

0 reply
Dyuha 7,981 wrote on February 12 2005, 12:00 am

Thanx guys!

guest
You may want to rate the tab now too:
select rating
Wanna post a correction for this tab? Suggest correction