Oops, an error
Loading. Please wait.

Rudolph The Red-Nosed Reindeer Tab

version 5
version 5

Whole song

Interactive

7,154 views 198 this week
no commentswrite comment
1 2 3 4 5
x 5
add to favorites
launch autoscroll
font size
0
reset
how to read this tab
guitar tuner
Autoscroll
slow
fast
+/-
esc
set tempo
stop
Help us to improve Ultimate-Guitar.com Take our survey!
×
Author
E|-------------------------------------------------------------------------------------------------|
B|----------------10--------------------------10--9--------------9--7------------------------------|
G|--9--11--9----------11--9--9--11--9--11--9---------7--9--7-----------9--9--11--9--11--9--11------|
D|------------11----------------------------------------------9--------------------------------11--|
A|-------------------------------------------------------------------------------------------------|
E|-------------------------------------------------------------------------------------------------|

E|-------------------------------------------------------------------------------------------------|
B|----------------10--------------------------10--9--------------9--7----------------------12--10--|
G|--9--11--9----------11--9--9--11--9--11--9---------7--9--7-----------9--9--11--9--11--9----------|
D|------------11----------------------------------------------9------------------------------------|
A|-------------------------------------------------------------------------------------------------|
E|-------------------------------------------------------------------------------------------------|

E|-------------------------------------------------------------------------------------------------|
B|----------10--------------------------------------------5--7--7--7--8--8--7--5-------------------|
G|--11--11------11--9------9------11--9-------------5--7--------------------------7--5-------------|
D|---------------------11-----12---------12--11--7--------------------------------------7----------|
A|-------------------------------------------------------------------------------------------------|
E|-------------------------------------------------------------------------------------------------|

E|-------------------------------------------------------------------------------------------------|
B|----------------10--------------------------10--9--------------9--7----------------------12--10--|
G|--9--11--9----------11--9--9--11--9--11--9---------7--9--7-----------9--9--11--9--11--9----------|
D|------------11----------------------------------------------9------------------------------------|
A|-------------------------------------------------------------------------------------------------|
E|-------------------------------------------------------------------------------------------------|
Suggest correction
comments
print report bad tab
guest
You may want to rate the tab now too:
select rating
Wanna post a correction for this tab? Suggest correction