Oops, an error
Loading. Please wait.

Santa Claus Is Coming To Town Tab

version 2
version 2

Whole song

Interactive

107,122 views 1,095 this week
9 commentsread comments
1 2 3 4 5
x 49
add to favorites
launch autoscroll
font size
0
reset
how to read this tab
guitar tuner
Autoscroll
slow
fast
+/-
esc
set tempo
stop
Help us to improve Ultimate-Guitar.com Take our survey!
×
Author
Difficulty
Tuning
novice
E A D G B E
|----------------------------------------------------------------|
|----------------0-1-1-------------------------------------------|
|------0-0---0-2---------------0-0-0-2-0----------0--------------|
|0-2-3-------------------0-2-3-----------3-3----2-----2-0-3------|
|---------------------------------------------------3--------2-3-|
|----------------------------------------------------------------|

|--------------------------------0-------------------------------|
|1-3-1-0-1-------1-3-1-0-1-----3---3-2-3-0-0-0-0-1-3-1-0---------|
|----------2-2-------------2-----------------------------2-0-----|
|----------------------------------------------------------------|
|----------------------------------------------------------------|
|----------------------------------------------------------------|

|----------------------------------------------------------------|
|----------------0-1-1---------------------------------------3-1-|
|------0-0---0-2---------------0-0-0-2-0---------0---------------|
|0-2-3-------------------0-2-3-----------3-3---2-----2-0-3-------|
|--------------------------------------------------3-------------|
|----------------------------------------------------------------|
Suggest correction
comments
print report bad tab
9 comments total. Showing first comments.
+2 reply
Rock*Star 10 Dec 08, 2007 05:58 PM

it kinda needs to be spaced out better, but it's accurate.

+1 reply
Pyro Punk1 10 Jun 29, 2008 12:38 PM

Nice job! =)

0 reply
MyGoodLooks 10 Dec 10, 2008 07:17 PM

perfect, but as Rock*Star said, it does need to be spaced out a little

guest
You may want to rate the tab now too:
select rating
Wanna post a correction for this tab? Suggest correction