Oops, an error
Loading. Please wait.

Santa Clause Comes Tonight Tab

2,489 views 1 this week
1 commentread comment
1 2 3 4 5
please rate
add to favorites
launch autoscroll
font size
0
reset
how to read this tab
guitar tuner
Autoscroll
slow
fast
+/-
esc
set tempo
stop
Help us to improve Ultimate-Guitar.com Take our survey!
×
Author
Difficulty
This is a pretty easy song, it's pretty easy to change it around and make it your own 
so have fun and enjoy.

tabs credit go to payton pruitt

e ---------------------------------------------------------------------------|
B ---------------------------------------------------------------------------|
G ---------------------------------------------------------------------------|
D ------------------------------------------------------------2-2-2-1-2------|
A ---4-2-2-0----4-2-2-0----5-5-5-4-5------5-5-4-5---5-5-4-5------------------|
E -0----------0-------------------------0---------0--------------------------|


e ---------------------------------------------------------------------------|
B ---------------------------------------------------------------------------|
G ---------------------------------------------------------------------------|
D -2-6-4-2----0-4-2-0------------------2-2-6-4-2----0-4-2--------------------|
A -----------------------4-4-7-5-4-------------------------4-5-5-4-2-0-0-----|
E ---------------------------------7-----------------------------------------|

                S
e ---------------------------------------------------------------------------|
B ---------------------------------------------------------------------------|
G -------------7/2-----------------------------------------------------------|
D -4-5-5-4-5-7---------------------------------------------------------------|
A ---------------------------------------------------------------------------|
E ---------------------------------------------------------------------------|
Suggest correction
Give kudos to tab author, rate the tab!
1 2 3 4 5
comments
print report bad tab
1 comment total.
0 reply
colexscar 10 wrote on March 2 2008, 07:39 pm

gay

guest
You may want to rate the tab now too:
select rating
Wanna post a correction for this tab? Suggest correction