Oops, an error
Loading. Please wait.

Silent Night Tab

version 11
version 11

Whole song

Video

1,028 views 1 this week
no commentswrite comment
1 2 3 4 5
2 more votes to show rating
add to favorites
launch autoscroll
font size
0
reset
how to read this tab
guitar tuner
×
Best way to learn
"Silent Night"
Autoscroll
slow
fast
+/-
esc
set tempo
stop
Author
Difficulty
  follow
intermediate
"Silent Night"
Played in the key of C Major
Arranged and tabbed by Phebe Enverga


Tablature Legend:
h ? hammer  on
^ ? strum down softly


Intro:
    C                      G                        C
---------------------------------------------------------------------------------------------------------|
----1--------------------------------------------------------------------1-------------------------------|
-----------0---------------0--------------------------------------0--------------------------------------|
------------------2--------------------3----0--------------2---------------------------------------------|
--- 3-----------------------------------------------3----------------------------------------------------|
---------------------------3-----------------------------------------------------------------------------|

       C                          C                     C                         C
       Si-               lent   night,                 Ho-              ly      night
---------------------------------------------------------------------------------------------------------|
---------------------------------------------------------------------------------------------------------|
-------0--------------2---0-----------------------------0------------2---0-------------------------------|
----------------------------------2-------------2---------------------------------2------------2---------|
-------3------3-------------------3-----3---------------3-----3-------------------3----3-----------------|
---------------------------------------------------------------------------------------------------------|


       G                     G                    C                   C          C7
      All            is    calm,                 All         is    bright
---------------------------------------------------------------------------------------------------------|
-------3--------------3------0--------------------1-----------1------------------------------------------|
------------------------------------------0---------------------------0-----------3----------------------|
------------------------------------------------------------------------------2--------------------------|
--------------------------------------------------3-----3-------------3----------------------------------|
-------3------3--------------3------3--------------------------------------------------------------------|


       F                       F                         C                        C
     Round           yon      vir-                gin,   Mo-         ther  and  child
---------------------------------------------------------------------------------------------------------|
-------------------------------1--------------0----------------------------------------------------------|
-------2-------------2-----------------------------2-----0-------------2----0----------------------------|
-------3------3----------------3-----3--------------------------------------------2-------------2--------|
---------------------------------------------------------3------3-----------------3-------3--------------|
---------------------------------------------------------------------------------------------------------|


       F                       F                         C                        C
      Ho-            ly        In-           fant  so   ten-          der  and  bright
---------------------------------------------------------------------------------------------------------|
-------------------------------1--------------0----------------------------------------------------------|
-------2-------------2-----------------------------2-----0-------------2----0----------------------------|
-------3------3----------------3-----3--------------------------------------------2-------------2--------|
---------------------------------------------------------3------3-----------------3-------3--------------|
---------------------------------------------------------------------------------------------------------|

       G                       G                        Am                        Fm
     Sleep           in       hea-          ven- ly    peace
-------------------------------1---------------------------------------------------0---------------------|
-------3--------------3----------------------3---0------0h1----------------1-------1---------------------|
----------------------------------------------------------------------2------------1---------------------|
-----------------------------------------------------------------2---------------------------------------|
--------------------------------------------------------0------------------------------------------------|
-------3------3----------------3------3--------------------------------------------1---------------------|


       C                  G                      F                   FM                  
    C
     Sleep       in      hea-        ven- ly   peace.                                    
                                                                                        
                            ^
----------------------------------------------------------------------1----------------------0-----------|
-------1------------------------------0---3------1------------1------------1-----------------1-----------|
------------0--------------0----------------------------2-----------------------1------------0-----------|
------------------2-------------0----------------3-------------------------------------------2-----------|
-------3-------------------------------------------------------------------------------------3-----------|
---------------------------3------------------------------------------1----------------------------------|
Suggest correction
Give kudos to tab author, rate the tab!
1 2 3 4 5
comments
print report bad tab
guest
You may want to rate the tab now too:
select rating
Wanna post a correction for this tab? Suggest correction