Oops, an error
Loading. Please wait.

Silent Night Tab

version 12
version 12

Whole song

Video

2,361 views 1 this week
no commentswrite comment
1 2 3 4 5
2 more votes to show rating
add to favorites
launch autoscroll
font size
0
reset
how to read this tab
guitar tuner
Autoscroll
slow
fast
+/-
esc
set tempo
stop
Help us to improve Ultimate-Guitar.com Take our survey!
×
Author
Difficulty
intermediate
About this tab version
This style is a fingerstyle version. Was this info helpful? Yes No
-------------------------------------------------------------------------------
                             Silent Night - Christmas Carol
-------------------------------------------------------------------------------
Hi ako nga pala si Leo, ito po ang pinakauna kong nasubmit na tab(Fingerstyle version po 
ito), sana po magustuhan nyo :) suggestions o may dapat i-fix? magcomment lang po kayo, 
thank you po. :)

Arranged and tabbed by Leo
Played in the key of G Major  - GABCDEF#
E-mail: leoalonzogonesjr@gmail.com

Tuning: Standard

    G
e|-------------0-------------------------------------------------------------|
B|--3-------------3-------0-----------------0--------------------------------|
G|---------0----------------------0----2--------------Repeat 2x--------------|
D|------0-------------0-------0-----------------0----------------------------|
A|---------------------------------------------------------------------------|
E|--3---------------------3--------------------------------------------------|
     D                                                    G
e|---5----------------5--------2--------------------------3------------------|
B|-----------3----------------------------3----------------------------------|
G|-------2-------2------------------2-----------2------------------0---------|
D|---0---------------------0---0---------------------0--------0---------0----|
A|---------------------------------------------------------------------------|
E|--------------------------------------------------------3------------------|
                                               C
e|---3-------------------------------------|---0---------------0-------2-----|
B|------------3-------------------3--------|---------------------------------|
G|-----------------------0-----------------|-----------0---------------------|
D|-------0----------0---------0-------0----|-------2-------2------2----------|
A|-----------------------------------------|---3-----------------------------|
E|------------3----------------------------|---------------------------------|
     Am                           G
e|---3--------------------0-------------------0------------------------------|
B|--------------------------------3----------------3---------0---------------|
G|--------------2-------------------------0---------------------------0------|
D|--------2----------2----------------0----------------0-----------0---------|
A|---0-----------------------------------------------------------------------|
E|--------------------------------3--------------------------3---------------|
                                     D                              Am
e|-----------------------------------5-------------------5----------8--------|
B|--------0------------------------------------3-----------------------------|
G|---2----------------Repeat 2x-----------2---------2------------------------|
D|-----------0-----------------------0------------------------0---------7----|
A|------------------------------------------------------------------0--------|
E|---------------------------------------------------------------------------|
                  D              Em                          Am     G
e|----------------5----3----2----3--------------------3-----5/7-----3--------|
B|------------------------------------------0-----------------5--------------|
G|---5---------------------------------0---------0---------------------------|
D|--------7---0---0------------------------------------------------------0---|
A|------------------------------------------------------------0--------------|
E|-------------------------------0----------------------------------3--------|
                              D/F#                          G  
e|---------------------------------------------------------------------------|
B|----3----------0-------1----3---------------1------------------------------|
G|---------0------------------2----------2----------2-------0---------0--2---|
D|----------------------------------0----------------------------0-----------|
A|---------------------------------------------------------------------------|
E|----------------------------2-----------------------------3----------------|
                              G
e|----------------------------3----------------------------------------------|
B|----0-----3-----1-----------0----------------------------------------------|
G|----------------------2-----0------------Repeat 3x-------------------------|
D|----------------0----------------------------------------------------------|
A|---------------------------------------------------------------------------|
E|----------------------------3----------------------------------------------|
| /   slide up
Suggest correction
Give kudos to tab author, rate the tab!
1 2 3 4 5
comments
print report bad tab
guest
You may want to rate the tab now too:
select rating
Wanna post a correction for this tab? Suggest correction