Oops, an error
Loading. Please wait.

Silent Night Tab

version 14
version 14

Whole song

Video

2,110 views 1 this week
1 commentread comment
1 2 3 4 5
x 6
add to favorites
launch autoscroll
font size
0
reset
how to read this tab
guitar tuner
Autoscroll
slow
fast
+/-
esc
set tempo
stop
Author
Difficulty
intermediate
About this tab version
Uses different chords and techniques in order to provide a different interpretation of the song. Was this info helpful? Yes No
-------------------------------------------------------------------------------
                 SILENT NIGHT (Traditional Christmas Song)
-------------------------------------------------------------------------------
Tabbed by: AnnoyingXP
E-mail: annoyingXP@hotmail.com

Hey guys! I just wanted to share a version of Silent Night that I like to play.
Hope you enjoy! 

Note: I've included the rhythm at the top.  Hope that helps.

Tuning: Standard (EADGBe)
Tempo: 3/4

    1  +  2  +  3  +  1  +  2  +  3  +  1  +  2  +  3  +  1  +  2  +  3  +
e|-----------12+---------------------------------12+------------------------|
B|--------------------12+---------------------------------12+---------------|
G|--7+----------7+----------------------7+----------7+----------------------|
D|--------------------------------------------------------------------------|
A|--------------------------------------------------------------------------|
E|--------------------------------------------------------------------------|

    1  +  2  +  3  +  1  +  2  +  3  + 
e|--------------------------------------|
B|-----------0-----------------0--------|
G|--------0-----0-----------0-----0-----|
D|-----0-----------0-----0-----------0--|
A|--------------------------------------|
E|--3-----------------3-----------------|

    1  +  2  +  3  +  1  +  2  +  3  +  1  +  2  +  3  +  1  +  2  +  3  +
e|-----------0-----------------------------------0--------------------------|
B|--3-----------3-----0--------0--------3-----------3-----0--------0--------|
G|--------0--------0--------0-----0-----------0--------0--------0-----0-----|
D|-----0-----------------0-----------0-----0-----------------0-----------0--|
A|--------------------------------------------------------------------------|
E|--3-----------------3-----------------3-----------------3-----------------|

    1  +  2  +  3  +  1  +  2  +  3  +  1  +  2  +  3  +  1  +  2  +  3  + 
e|--5-----------5-----2-----------------3-----------3-----------------------|
B|--------3-----------------3-----------------0-----------3--------0--------|
G|-----2-----2-----2-----2-----2-----------0-----0-----0--------0-----0-----|
D|--0-----------------0-----------0--------------------------0-----------0--|
A|-----------------------------------0--------------------------------------|
E|--------------------------------------3-----------------3-----------------|

    1  +  2  +  3  +  1  +  2  +  3  +  1  +  2  +  3  +  1  +  2  +  3  +
e|--0-----------0-----3--------2--0--------------0--------------------------|
B|--------1-----------------1-----------3-----------3-----0--------0--------|
G|-----0-----0-----0-----0-----------0--------0--------0--------0-----0-----|
D|-----------------------------------------0-----------------0-----------0--|
A|--3-----------------3-----------------------------------------------------|
E|--------------------------------------3-----------------3-----------------|

    1  +  2  +  3  +  1  +  2  +  3  +  1  +  2  +  3  +  1  +  2  +  3  +
e|--0-----------0-----3--------2--0--------------0--------------------------|
B|--------1-----------------1-----------3-----------3-----0--------0--------|
G|-----0-----0-----0-----0-----------0--------0--------0--------0-----0-----|
D|-----------------------------------------0-----------------0-----------0--|
A|--3-----------------3-----------------------------------------------------|
E|--------------------------------------3-----------------3-----------------|

    1  +  2  +  3  +  1  +  2  +  3  +  1  +  2  +  3  +  1  +  2  +  3  +
e|--5-----------5-----8--------5--------3-----------------7-----------------|
B|--------3-----------------7-----7--------------0-----------------0--------|
G|-----2-----2-----2-----7--------------------0-----0-----------0-----0-----|
D|--0-----------------0--------------0-----0-----------0-----0-----------0--|
A|--------------------------------------------------------------------------|
E|--------------------------------------3-----------------3-----------------|

    1  +  2  +  3  +  1  +  2  +  3  +  1  +  2  +  3  +  1  +  2  +  3  +
e|--3-----------------------------------------------------3~----------------|
B|-----------3--0-----3--------1--------------0-----3-----3~----------------|
G|--------0--------0-----2--------2-----0-----------------0~----------------|
D|-----0--------------0-----4--------0-----0-----0-----0--0~----------------|
A|--------------------------------------------------------x-----------------|
E|--3-----------------------------------3-----------------3~----------------|


************************************

| +   harmonic / upbeat (in rhythm)
| ~   let it ring
| x   mute note

************************************
Suggest correction
comments
print report bad tab
1 comment total.
0 reply
bobbyfox 10 Dec 09, 2016 07:42 PM

The tempo is not 3/4 but 6/8.

guest
You may want to rate the tab now too:
select rating
Wanna post a correction for this tab? Suggest correction