Oops, an error
Loading. Please wait.

Silent Night Tab

version 15
version 15

Whole song

Video

376 views 1 this week
no commentswrite comment
1 2 3 4 5
x 4
add to favorites
×
Save as Personal and add changes to this tab that will be seen only by you. Learn more ›
launch autoscroll
font size
0
reset
how to read this tab
guitar tuner
Autoscroll
slow
fast
+/-
esc
set tempo
stop
Author
---------------------------------------------------------------------------
                             Silent Night
---------------------------------------------------------------------------
Tabbed by: P-Nizzle
Tuning: Standard

Silent Night by Joseph Mohr, Franz Gruber

Here’s a very simple version of this song using mainly bar chords.  Rake &
hold chords as you play, letting chords ring as best you can while hitting 
fill notes (which I kept to a minimum, but feel free to add/arpeggiate as
you wish).  Many other verses for this song, but all plays the same.

Enjoy & Merry Christmas!

---------------------------------------------------------------------------

CHORDS
USED    E-A-D-G-B-e
----------------------
G       3-5-5-4-3-3
        x-10-9-7-8-7

D       x-5-7-7-7-5
D5      x-5-7-7-x-x

C       x-3-5-5-5-3



   G                         G
e|------------|------------|------------|------------|
B|-3---5--3---|------------|-3---5--3---|------------|
G|-4----------|-4----------|-4----------|-4----------|
D|-5----------|-5----------|-5----------|-5----------|
A|------------|-5----------|------------|-5----------|
E|------------|-3----------|------------|-3----------|
  Si -    lent  Night        Ho -   ly    Night


   D                         G
e|-5-----5----|------------|-3-----3----|------------|
B|-7----------|-7----------|-3----------|-3----------|
G|-7----------|-7----------|-4----------|-4----------|
D|------------|-7----------|-5----------|-5----------|
A|------------|------------|------------|-5----------|
E|------------|------------|------------|------------|
  all    is     calm         all   is     bright


   C                         G
e|------------|-3---2--0---|------------|------------|
B|-5-----5----|-5----------|-3---5--3---|------------|
G|-5----------|-5----------|-4----------|-4----------|
D|-5----------|-5----------|-5----------|-5----------|
A|-3----------|------------|------------|-5----------|
E|------------|------------|------------|-3----------|
  'round yon    vir -  gin   mo-ther and  child


   C                         G
e|------------|-3---2--0---|------------|------------|
B|-5-----5----|-5----------|-3---5--3---|------------|
G|-5----------|-5----------|-4----------|-4----------|
D|-5----------|-5----------|-5----------|-5----------|
A|-3----------|------------|------------|-5----------|
E|------------|------------|------------|-3----------|
   Ho   -ly    in -fant so  ten-der and   mild


   D                        G
e|-5-----5----|-8----------|------------|-7—---------|
B|-7----------|-10--10-----|-8----------|-8----------|
G|-7----------|-11------11-|-7----------|-7----------|
D|------------|------------|-9----------|-9----------|
A|------------|------------|-10---------|------------|
E|------------|------------|------------|------------|
  sleep  in    hea –ven-ly   pea         -eace


   G            D5           G
e|------------|------------|------------|---------3--|
B|-8----------|------------|------------|-----3------|
G|-7---7------|-7---5------|------------|-4----------|
D|-9------9---|-7-------7--|---------5--|------------|
A|-10---------|-5----------|-----5------|------------|
E|------------|------------|-3----------|------------|
  Slee-ep in    hea-ven-ly   peace


Silent night! holy night!
Son of God love's pure light
Radiant beams from thy holy face
With the dawn of redeeming grace,
Jesus, Lord at thy birth
Jesus, Lord at thy birth

Silent night! holy night!
Shepherds quake at the sight
Glories stream from heaven afar
Heavenly hosts sing Alleluia
Christ the Saviour is born
Christ the Saviour is born!
Suggest correction
comments
print report bad tab
guest
You may want to rate the tab now too:
select rating
Wanna post a correction for this tab? Suggest correction