Oops, an error
Loading. Please wait.

Silent Night tab

version 20
version 20

Whole song

Video

97 views 3 this week
no commentswrite comment
1 2 3 4 5
2 more votes to show rating
add to favorites
×
Save as Personal and add changes to this tab that will be seen only by you. Learn more ›
×
You can save this tab as Personal to edit and correct it or add notes. All changes will be seen only by you. Learn more »
launch autoscroll
font size
0
reset
how to read this tab
guitar tuner
edit
Autoscroll
slow
fast
+/-
esc
set tempo
stop
Author
-------------------------------------------------------------------------------
                             SONG NAME - Band Name
-------------------------------------------------------------------------------
Tabbed by:guitarman3600
E-mail:
Tuning:Standard
   
    (x2)                          (x2)
e|---------|-------------|-------------------|---------------|---------------|
B|---------|-------------|-------------------|-----6-------5-|---------------|
G|---------|-7-7-4-5-5-9-|-----5-4-----------|-7-7---7-4-5---|-5-------------|
D|-5-7-5---|-------------|-7-7-----7-5-7-5---|---------------|---5-2-5-3-----|
A|-------7-|-------------|-----------------7-|---------------|-----------5-3-|
E|---------|-------------|-------------------|---------------|---------------|

***Repeat This (3) Times***

Silent night, holy night 
All is calm, all is bright
Round yon Virgin Mother and Child
Holy Infant so tender and mild
Sleep in heavenly peace
Sleep in heavenly peace

Silent night, holy night!
Shepherds quake at the sight
Glories stream from heaven afar
Heavenly hosts sing Alleluia!
Christ, the Saviour is born
Christ, the Saviour is born

Silent night, holy night
Son of God, love's pure light
Radiant beams from Thy holy face
With the dawn of redeeming grace
Jesus, Lord, at Thy birth
Jesus, Lord, at Thy birth "

*******************************************
Thanks for choosing my tab. I hope it helps
you out. As always tho we Must give the Lord
All of our Praise to His Great & Everlasting 
Glory.

            
            
Suggest correction
Creating personal tab
Creating personal tab
You can edit any tab online and save it as your Personal.

You can edit, replace or remove any tab part or add personal notes – all changes will be seen only by you.

Personal tabs can be accessed anytime from any device, even offline.
Learn more »
Give kudos to tab author, rate the tab!
1 2 3 4 5
comments
print report bad tab
guest
You may want to rate the tab now too:
select rating
Wanna post a correction for this tab? Suggest correction