Oops, an error
Loading. Please wait.

Silent Night Bass Tab

version 3
version 3
23,577 views 276 this week
no commentswrite comment
1 2 3 4 5
x 29
add to favorites
launch autoscroll
font size
0
reset
guitar tuner
Autoscroll
slow
fast
+/-
esc
set tempo
stop
Help us to improve Ultimate-Guitar.com Take our survey!
×
Author
Difficulty
novice
Tabbed By : moejoe
e-mail: 

Tuning: Standard EADG

G|---------------------7-7-4~--5-5---------5-4-------------------5-4----------|
D|-5-7-5-----5-7-5-----------------5~--7-7-----7--5-7-5----7-7-------7--5-7-5-|
A|-------7~~-------7-~~----------------------------------7-------------------7|
E|----------------------------------------------------------------------------|

G|-7--7-10-7-4-5~/9~--5------------------------------------------------------|
D|-----------------------5-2--5-3--------------------------------------------|
A|--------------------------------5-3~~--------------------------------------|
E|---------------------------------------------------------------------------|
Suggest correction
comments
print report bad tab
guest
You may want to rate the tab now too:
select rating
Wanna post a correction for this tab? Suggest correction