Oops, an error
Loading. Please wait.

Silent Night Tab

version 6
version 6

Whole song

Video

58,631 views 261 this week
6 commentsread comments
1 2 3 4 5
x 38
add to favorites
launch autoscroll
font size
0
reset
how to read this tab
guitar tuner
Autoscroll
slow
fast
+/-
esc
set tempo
stop
Help us to improve Ultimate-Guitar.com Take our survey!
×
e|-------0-----|-------------|-------0-----|-------------|-5-------5---|
B|-3-------3---|-0-----0-----|-3-------3---|-0-----0-----|---3---3---3-|
G|---0-------0-|---0-----0---|---0-------0-|---0-----0---|-----2-------|
D|-----0---0---|-----0-----0-|-----0---0---|-----0-----0-|-0-----------|
A|-------------|-------------|-------------|-------------|-------------|
E|-3-----------|-3-----------|-3-----------|-3-----------|-------------|


-2-------2---|-3-------3---|-------------|-0-------0---|-3-----2-0---|
---3---3---3-|---3---3---3-|-3-------3---|---1---1---1-|---1-------1-|
-----2-------|-----4-------|---4---4---4-|-----0-------|-----0-------|
-0-----------|-------------|-----5-------|-------------|-------------|
-------------|-------------|-------------|-3-----------|-3-------3---|
-------------|-3-----------|-3-----------|-------------|-------------|


-------0-----|-------------|-0-------0---|-3-----2-0---|-------0-----|
-3-------3---|-0-----0-----|---1---1---1-|---1-------1-|-3-------3---|
---0-------0-|---0-----0---|-----0-------|-----0-------|---0-------0-|
-----0---0---|-----0-----0-|-------------|-------------|-----0---0---|
-------------|-------------|-3-----------|-3-------3---|-------------|
-3-----------|-3-----------|-------------|-------------|-3-----------|

                                                         rake
-------------|-5-------5---|-8-----5-----|--------------|-7~~~~~~~~~~~~|
-0-----0-----|---7---7---7-|---7-----7---|-8--------8---|-8~~~~~~~~~~~~|
---0-----0---|-----7-------|-----7-----7-|----7---7---7-|-7~~~~~~~~~~~~|
-----0-----0-|-0-----------|-0-------0---|------9-------|-9~~~~~~~~~~~~|
-------------|-------------|-------------|-10-----------|-10~~~~~~~~~~~|
-3-----------|-------------|-------------|--------------|--------------|


-3-----------|-------------|-------------|--------------|
---3---3-----|-3-----1-----|-------------|--------------|
-----4---4---|---2-----2---|-0(let ring)-|~~~~~~~~~~~~~~|
-----------5-|-----4-----4-|----------0--|--------------|
-------------|-5-----------|------2------|--------------|
-3-----------|---------2---|-3-----------|-3~~~~~~~~~~~~|


This was my first tab. but its all correct. tell me what you think creampuff1992@hotmail.com
Suggest correction
comments
print report bad tab
6 comments total. Showing first comments.
+4 reply
Lamb-Megallica 10 Nov 19, 2010 01:29 PM

The best one on here.

+1 reply
PsykoKid 10 Nov 10, 2011 06:43 PM

Gorgeous tabs.

+1 reply
CHAOSkid42 16 Dec 07, 2012 01:29 AM

This is an amazing tab. Good job!

guest
You may want to rate the tab now too:
select rating
Wanna post a correction for this tab? Suggest correction