Oops, an error
Loading. Please wait.

Silent Night Tab

version 8
version 8

Whole song

Video

4,208 views 1 this week
no commentswrite comment
1 2 3 4 5
please rate
add to favorites
launch autoscroll
font size
0
reset
how to read this tab
guitar tuner
Autoscroll
slow
fast
+/-
esc
set tempo
stop
Help us to improve Ultimate-Guitar.com Take our survey!
×
Author
Difficulty
Capo
intermediate
4th fret
-------------------------------------------------------------------------------
                                  Silent Night (Christmas Carol)
-------------------------------------------------------------------------------
Tabbed by: Mateusz Koj
Email: snakee7@gmail.com

Tuning: Standard
Capo 4th fret.

	        G                         G
e|---3------0--------------------3------0----------------------------------|
B|-----3------3-0---0-0---0--------3------3-0---0-0---0--------------------|
G|-------0--------0-----0------------0--------0-----0----------------------|
D|----------0-0-0---0-0-----------------0-0-0---0-0------------------------|
A|-------------------------------------------------------------------------|
E|---3---------------------------3-----------------------------------------|

	   Si - lent Night             Ho - ly Night

        D7            D                 G
e|---5-----5-5------2-----2----------3-----3-3-------3---------------------|
B|-----3--------------3-----3----------3-------3---3---3-------------------|
G|-------2--------------2-----2----------0-------0-------0-----------------|
D|---0-----0-0------0-----0----------0-----0-0-----------------------------|
A|-------------------------------------------------------------------------|
E|-------------------------------------------------------------------------|

	    All is calm                    All is bright

         C                          G
e|---0-----0-0--3-2-0----------3-----0-------------------------------------|
B|-----1--------------0----------3-----3-0---0-0---0-----------------------|
G|-------0--------------0----------0-------0-----0-------------------------|
D|---2-----2-2--0-0-0----------0-----0-0-0---0-0---------------------------|
A|-------------------------------------------------------------------------|
E|-------------------------------------------------------------------------|

	 Round yon Vir -gin          Moth -er and Child

         C                          G
e|---0-----0-0--3-2-0----------3-----0-------------------------------------|
B|-----1--------------0----------3-----3-0---0-0---0-----------------------|
G|-------0--------------0----------0-------0-----0-------------------------|
D|---2-----2-2--0-0-0----------0-----0-0-0---0-0---------------------------|
A|-------------------------------------------------------------------------|
E|-------------------------------------------------------------------------|

      Ho - ly In -fant          so ten -der and mild

        D7                             G               D
e|---5-----5-5------8-5------------3-----3----------7-----7----------------|
B|-----3----------------7---7--------3-----3----------8-----8--------------|
G|-------2----------------0------------0-----0----------7-----7------------|
D|---0-----0-0------0-0-0----------0-----0----------0-----0----------------|
A|-------------------------------------------------------------------------|
E|-------------------------------------------------------------------------|

          Sleep in hea -venly             peace

        G            D                   G
e|---3--------------2----------3-----3-----3-----3-----3-------------------|
B|-----3-0---0--------1----------3-----3-----3-----3-----------------------|
G|---------0------------2----------0-----0-----0-----0---------------------|
D|---0-0-0----------0----------0-----0-----0-----0-----0-------------------|
A|-------------------------------------------------------------------------|
E|-------------------------------------------------------------------------|

          Sleep in hea -venly             peace


Song sounds better when you're playing it slowly.
This is my first tab, so please be patient :)
Suggest correction new What's this?
You can suggest a correction to this tab. Community and Mods will review your correction and vote to approve or reject it.
comments
We did not receive enough feedback on this tab! Please rate:
print report bad tab
1 2 3 4 5
guest
You may want to rate the tab now too:
select rating
Please do not post tabs as comments. Select "correction" instead!