Oops, an error
Loading. Please wait.

Somerkersfees tab

10 views 1 this week
no commentswrite comment
1 2 3 4 5
3 more votes to show rating
add to favorites
×
Save as Personal and add changes to this tab that will be seen only by you. Learn more ›
×
You can save this tab as Personal to edit and correct it or add notes. All changes will be seen only by you. Learn more »
launch autoscroll
font size
0
reset
how to read this tab
guitar tuner
edit
Autoscroll
slow
fast
+/-
esc
set tempo
stop
About this tab version
This is a beautiful song and has not been tabulated as far as I could tell so this is my version, also easy for beginners. Was this info helpful? Yes No
[Intro]
e|----------0--0-------------------------------------------------------------|
B|-0--1--3--------3--1--1--0--------0----------------------------------------|
G|----------------------------0--2-----2--2--0-------------------------------|
D|---------------------------------------------------------------------------|
A|---------------------------------------------------------------------------|
E|---------------------------------------------------------------------------|

[Verse 1]
 Welkom o stille nag van vrede, Onder die suiderkruis,
e|---------0--0--------------------------------------------------------------|
B|0--1--3--------3--1--1--0------------0-------------------------------------|
G|-------------------------------0--2-----2--2--0----------------------------|
D|---------------------------------------------------------------------------|
A|---------------------------------------------------------------------------|
E|---------------------------------------------------------------------------|

 Wyl stemme uit die verlede     Oor sterrevelde ruis.
e|----------0---0------------------------------------------------------------|
B|0--1--3----------3--1--1--0----------0-------------------------------------|
G|---------------++--------------0--2-----2--2--0----------------------------|
D|---------------------------------------------------------------------------|
A|---------------------------------------------------------------------------|
E|---------------------------------------------------------------------------|

[Chorus]
Kersfees kom, Kersfees kom Gee aan God die eer.
e|---------------------------------------------------------------------------|
B|0--0--3--------------1----0--3--3--1--0------------------------------------|
G|--------------2--2-----------------------2---------------------------------|
D|---------------------------------------------------------------------------|
A|---------------------------------------------------------------------------|
E|---------------------------------------------------------------------------|

Skenk ons‘n helder Somerkersfees In hierdie land,o Heer.
e|----------0--0-------------------------------------------------------------|
B|-0--1--3--------3--1--1--0-----------0-------------------------------------|
G|-------------------------------0--2------2---2---0-------------------------|
D|---------------------------------------------------------------------------|
A|---------------------------------------------------------------------------|
E|---------------------------------------------------------------------------|

[Verse 2]
Hoor jy hoe sag die klokke beier, in eeue-oue taal.,
e|------------0--0-----------------------------------------------------------|
B|0---1---3---------3---1---1-----------0------------------------------------|
G|-----------------------------0--0--2-----2--2--0---------------------------|
D|---------------------------------------------------------------------------|
A|---------------------------------------------------------------------------|
E|---------------------------------------------------------------------------|

Kyk, selfs die nagtelike swye vertel die ou verhaal.
e|---------0--0--------------------------------------------------------------|
B|0--1--3--------3--1--1--0-----------0--------------------------------------|
G|----------------------------0--2--------2--2--0----------------------------|
D|---------------------------------------------------------------------------|
A|---------------------------------------------------------------------------|
E|---------------------------------------------------------------------------|

[Chorus]
Kersfees kom, Kersfees kom Gee aan God die eer.
e|---------------------------------------------------------------------------|
B|0--0--3--------------1----0--3--3--1--0------------------------------------|
G|--------------2--2-----------------------2---------------------------------|
D|---------------------------------------------------------------------------|
A|---------------------------------------------------------------------------|
E|---------------------------------------------------------------------------|

Skenk ons‘n helder Somerkersfees In hierdie land,o Heer.
e|----------0--0-------------------------------------------------------------|
B|-0--1--3--------3--1--1--0-----------0-------------------------------------|
G|-------------------------------0--2------2---2---0-------------------------|
D|---------------------------------------------------------------------------|
A|---------------------------------------------------------------------------|
E|---------------------------------------------------------------------------|

[Verse 3]
Voel jy ook nou Sy warm liefde As ons die dag gedenk,
e|----------0--0-------------------------------------------------------------|
B|0--1--3---------3--1--1--0-----------0-------------------------------------|
G|------------------------------0--2------2---2--0---------------------------|
D|---------------------------------------------------------------------------|
A|---------------------------------------------------------------------------|
E|---------------------------------------------------------------------------|

 Toe Hy sy Seun aan ons gegee het – Ons grootste Kersgeskenk.
e|----------0--0-------------------------------------------------------------|
B|0--1--3-----------3---1--1--0------------0---------------------------------|
G|-----------------------------------0--2--------2--2--0---------------------|
D|---------------------------------------------------------------------------|
A|---------------------------------------------------------------------------|
E|---------------------------------------------------------------------------|

[Chorus]
Kersfees kom, Kersfees kom Gee aan God die eer.
e|---------------------------------------------------------------------------|
B|0--0--3--------------1----0--3--3--1--0------------------------------------|
G|--------------2--2-----------------------2---------------------------------|
D|---------------------------------------------------------------------------|
A|---------------------------------------------------------------------------|
E|---------------------------------------------------------------------------|

Skenk ons‘n helder Somerkersfees In hierdie land,o Heer.
e|----------0--0-------------------------------------------------------------|
B|-0--1--3--------3--1--1--0-----------0-------------------------------------|
G|-------------------------------0--2------2---2---0-------------------------|
D|---------------------------------------------------------------------------|
A|---------------------------------------------------------------------------|
E|---------------------------------------------------------------------------|

[Outro]
e|----------0--0-------------------------------------------------------------|
B|-0--1--3--------3--1--1--0--------0----------------------------------------|
G|----------------------------0--2-----2--2--0-------------------------------|
D|---------------------------------------------------------------------------|
A|---------------------------------------------------------------------------|
E|---------------------------------------------------------------------------|
Suggest correction
Creating personal tab
Creating personal tab
You can edit any tab online and save it as your Personal.

You can edit, replace or remove any tab part or add personal notes – all changes will be seen only by you.

Personal tabs can be accessed anytime from any device, even offline.
Learn more »
Give kudos to tab author, rate the tab!
1 2 3 4 5
comments
print report bad tab
guest
You may want to rate the tab now too:
select rating
Wanna post a correction for this tab? Suggest correction