Oops, an error
Loading. Please wait.

The Chipmunk Christmas Song Tab

version 1
version 1

Whole song

Interactive

18,611 views 123 this week
no commentswrite comment
1 2 3 4 5
x 10
add to favorites
launch autoscroll
font size
0
reset
how to read this tab
guitar tuner
Autoscroll
slow
fast
+/-
esc
set tempo
stop
Help us to improve Ultimate-Guitar.com Take our survey!
×
Author
      Chipmunk Christmas Song


e----------------------------------------------------------------------------------------|
B---------------------------------------1------0---------------------0----------------1--|
G------------------0------------2----------------------------2----------------2----------|
D------2-----------------------------------------------3-------------------3-------------|
A----------------------------------------------------------------------------------------|
E----------------------------------------------------------------------------------------|
     Christ-      mas       Christ   mas  time   is   near.  Time  for toys and

e----------------------------------------------------------------------------------------|
B--0----------------------------------------------0----------3---1-----------------0-----|
G----------2-------2--------------------2------------------------------2-----------------|
D-------------------------------3--------------------------------------------------------|
A----------------------------------------------------------------------------------------|
E----------------------------------------------------------------------------------------|
  Time   for    cheer.     We’ve   been  good      but  we   can’t      last

e---------------------------------------------------------------------------------------| 
B--1---------------0-------3------1----------------------------------------------1------|
G---------2------------------------------2-----2-----------------0------2---------------|
D----------------------------------------------------------2----------------------------|
A---------------------------------------------------------------------------------------|
E---------------------------------------------------------------------------------------|
   Hur -  ry    Christ  - mas  hur -  ry   fast!     Want    a    plane   that 

e----------------------------------------------0---0------------------------0-----------|
B----0-----------------------------------1---------------3----3----------------------3--|
G------------0-------2-------0---2------------------------------------------------------|
D---------------------------------------------------------------------------------------|
A---------------------------------------------------------------------------------------|
E---------------------------------------------------------------------------------------|
    Loops   the   loop;   Me,  I   want  a   hu -  la -  hoop.    We     can

e---1-----0-----------------0----------------------------------------------------------|
B--------------3--------1---------------0-----------------0-----------------3----1-----|
G---------------------------------------------------2-----------------0----------------|
D--------------------------------------------------------------------------------------|
A--------------------------------------------------------------------------------------|
E--------------------------------------------------------------------------------------|

  Hard -  ly  stand   the   wait.  Please   Christ -  mas don’t be late______: repeat 

                                  Try to sing while playing,  it’s a happy song, chris


                                                                
Suggest correction
comments
print report bad tab
guest
You may want to rate the tab now too:
select rating
Wanna post a correction for this tab? Suggest correction