Oops, an error
Loading. Please wait.

Twelve Days Of Christmas Tab

version 3
version 3

Whole song

Interactive

25,570 views 3 this week
5 commentsread comments
1 2 3 4 5
accurate
x 11
add to favorites
launch autoscroll
font size
0
reset
how to read this tab
guitar tuner
Autoscroll
slow
fast
+/-
esc
set tempo
stop
Help us to improve Ultimate-Guitar.com Take our survey!
×
Contributor
Difficulty
wtflolbbq 788
novice
*May 27, 2012 EDIT: Thanks to geomotions for the correction!

|-----------------------------------------------------------------------|
|-----------------------------------------------------------------------|
|------------------------------0-2--------------------------------------|
|-----------------0-2-3-0-2--3-----3-2---0------------------------------|
|-------3-3-3-2-3----------------------3---3----------------------------|
|-3-3-3-----------------------------------------------------------------|
On the first day of Christmas my true love sent to me:
A partridge in a pear tree
|-----------------------------|-----------|-----------------------------|
|-----------------------------|-----------|-----------------------------|
|-----------------------------|-0---------|------0-2--------------------|
|-------------------0-2-3-0-2-|---0-2-3-0-|--2-3-----3-2---0------------|
|---------3-3-3-2-3-----------|-----------|--------------3---3----------|
|-3-3-3-3---------------------|-----------|-----------------------------|
On the second day of Christmas my true love sent to me:
Two turtle doves, and A partridge in a pear tree
|---------------------------|----------x2|------------------------------|
|---------------------------|------------|------------------------------|
|---------------------------|-0----------|-----0-2----------------------|
|-----------------0-2-3-0-2-|---0-2-3-0--|-2-3-----3-2---0--------------|
|-------3-3-3-2-3-----------|------------|-------------3---3------------|
|-3-3-3---------------------|------------|------------------------------|
On the third day of Christmas my true love sent to me:
Three French hens, Two turtle doves, and A partridge in a pear tree
|---------------------------|----------x3|------------------------------|
|---------------------------|------------|------------------------------|
|---------------------------|-0----------|-----0-2----------------------|
|-----------------0-2-3-0-2-|---0-2-3-0--|-2-3-----3-2---0--------------|
|-------3-3-3-2-3-----------|------------|-------------3---3------------|
|-3-3-3---------------------|------------|------------------------------|
Fourth day: Four calling birds, Three French hens, Two turtle doves, 
and A partridge in a pear tree 
|-----------------------------------------------------------------------|
|-----------------------------------------------------------------------|
|----------------------------0-2---0--0---------------------------------|
|-----------------0-2-3-0-2------3------3-2-0---3-----------------------|
|-------3-3-3-2-3-----------------------------3---0-3-3/5-3-2-0---------|
|-3-3-3---------------------------------------------------------3-------|

|-----------------------------------------------------------------------|
|-----------------------------------------------------------------------|
|-----0-2---------------------------------------------------------------|
|-2-3-----3-2---0-------------------------------------------------------|
|-------------3---3-----------------------------------------------------|
|-----------------------------------------------------------------------|
Fifth day: Five golden rings, Four calling birds, Three French hens, 
Two turtle doves, and A partridge in a pear tree

|---------------------------|-----------|
|---------------------------|-----------|
|---------------------------|-0---------|
|-----------------0-2-3-0-2-|---0-2-3-0-|
|-------3-3-3-2-3-----------|-----------|
|-3-3-3---------------------|-----------|

|-----------------------------------------------------------------------|
|-----------------------------------------------------------------------|
|0-2---0--0--------------------------------0-2--------------------------|
|----3------3-2-0---3------------------2-3-----3-2---0------------------|
|-----------------3---0-3-3/5-3-2-0----------------3---3----------------|
|-----------------------------------3-----------------------------------|
Sixth day: Six geese a-laying, Five golden rings, Four calling birds, 
Three French hens, Two turtle doves, and A partridge in a pear tree

|-----------------------------|---------x2|
|-----------------------------|-----------|
|-----------------------------|-0---------|
|-------------------0-2-3-0-2-|---0-2-3-0-|
|---------3-3-3-2-3-----------|-----------|
|-3-3-3-3---------------------|-----------|

|-----------------------------------------------------------------------|
|-----------------------------------------------------------------------|
|0-2---0--0--------------------------------0-2--------------------------|
|----3------3-2-0---3------------------2-3-----3-2---0------------------|
|-----------------3---0-3-3/5-3-2-0----------------3---3----------------|
|-----------------------------------3-----------------------------------|
Seventh Day: Seven swans a-swimming, Six geese a-laying, Five golden rings,
 Four calling birds, Three French hens, Two turtle doves, and A partridge 
in a pear tree
|---------------------------|---------x3|
|---------------------------|-----------|
|---------------------------|-0---------|
|-----------------0-2-3-0-2-|---0-2-3-0-|
|-------3-3-3-2-3-----------|-----------|
|-3-3-3---------------------|-----------|

|-----------------------------------------------------------------------|
|-----------------------------------------------------------------------|
|0-2---0--0--------------------------------0-2--------------------------|
|----3------3-2-0---3------------------2-3-----3-2---0------------------|
|-----------------3---0-3-3/5-3-2-0----------------3---3----------------|
|-----------------------------------3-----------------------------------|
Eighth day: Eight maids a-milking, Seven swans a-swimming, Six geese 
a-laying, Five golden rings, Four calling birds, Three French hens, 
Two turtle doves, and A partridge in a pear tree
|---------------------------|---------x4|
|---------------------------|-----------|
|---------------------------|-0---------|
|-----------------0-2-3-0-2-|---0-2-3-0-|
|-------3-3-3-2-3-----------|-----------|
|-3-3-3---------------------|-----------|

|-----------------------------------------------------------------------|
|-----------------------------------------------------------------------|
|0-2---0--0--------------------------------0-2--------------------------|
|----3------3-2-0---3------------------2-3-----3-2---0------------------|
|-----------------3---0-3-3/5-3-2-0----------------3---3----------------|
|-----------------------------------3-----------------------------------|
Ninth day: Nine ladies dancing, Eight maids a-milking, Seven swans 
a-swimming, Six geese a-laying, Five golden rings, Four calling birds, 
Three French hens, Two turtle doves, and A partridge in a pear tree
|---------------------------|---------x5|
|---------------------------|-----------|
|---------------------------|-0---------|
|-----------------0-2-3-0-2-|---0-2-3-0-|
|-------3-3-3-2-3-----------|-----------|
|-3-3-3---------------------|-----------|

|-----------------------------------------------------------------------|
|-----------------------------------------------------------------------|
|0-2---0--0--------------------------------0-2--------------------------|
|----3------3-2-0---3------------------2-3-----3-2---0------------------|
|-----------------3---0-3-3/5-3-2-0----------------3---3----------------|
|-----------------------------------3-----------------------------------|
Tenth day: Ten lords a-leaping, Nine ladies dancing, Eight maids a-milking,
 Seven swans a-swimming, Six geese a-laying, Five golden rings,
 Four calling birds, Three French hens, Two turtle doves, and A partridge in a pear tree
|------------------------------|---------x6|
|------------------------------|-----------|
|------------------------------|-0---------|
|--------------------0-2-3-0-2-|---0-2-3-0-|
|----------3-3-3-2-3-----------|-----------|
|-3-3-33-3---------------------|-----------|

|-----------------------------------------------------------------------|
|-----------------------------------------------------------------------|
|0-2---0--0--------------------------------0-2--------------------------|
|----3------3-2-0---3------------------2-3-----3-2---0------------------|
|-----------------3---0-3-3/5-3-2-0----------------3---3----------------|
|-----------------------------------3-----------------------------------|
Eleventh day: Eleven pipers piping, Ten lords a-leaping, Nine ladies dancing, 
Eight maids a-milking, Seven swans a-swimming, Six geese a-laying,
 Five golden rings, Four calling birds, Three French hens, Two turtle doves, 
and A partridge in a pear tree

|---------------------------|---------x7|
|---------------------------|-----------|
|---------------------------|-0---------|
|-----------------0-2-3-0-2-|---0-2-3-0-|
|-------3-3-3-2-3-----------|-----------|
|-3-3-3---------------------|-----------|

|-----------------------------------------------------------------------|
|-----------------------------------------------------------------------|
|0-2---0--0--------------------------------0-2--------------------------|
|----3------3-2-0---3------------------2-3-----3-2---0------------------|
|-----------------3---0-3-3/5-3-2-0----------------3---3----------------|
|-----------------------------------3-----------------------------------|
Twelfth day: Twelve drummers drumming, Eleven pipers piping, Ten lords 
a-leaping, Nine ladies dancing, Eight maids a-milking, 
Seven swans a-swimming, Six geese a-laying, Five golden rings, 
Four calling birds, Three French hens, Two turtle doves, and A partridge in a pear tree

Happy holidays!
comments
print report bad tab
5 comments total. Showing first comments.
+1 reply
Aguamento 125 wrote on December 2 2009, 06:15 pm

This is perfect- I love it! 5 Stars!

0 reply
geomotions 47 wrote on December 9 2009, 05:46 pm

the tab is great, but i noticed that the part after 5 golden rings sounds like it is missing a few notes. but i give this tab 4.5 stars!
and Merry Christmas!

0 reply
geomotions 47 wrote on December 10 2009, 07:37 pm

i found out how to get the part after 5 golden rings
|------------------------------------|
|------------------------------------|
|0-2---0--0--------------------------|
|----3------3-2-0---3----------------|
|-----------------3---0-3-3/5-3-2-0--|
|-----------------------------------3|

but once again, great tab.

I want to post or [tab]
guest
You may want to rate the tab now too:
select rating
Please do not post tabs as comments. Select "correction" instead!