Oops, an error
Loading. Please wait.

Un Flambeau Jeanette Isabelle Tab

13 views 1 this week
no commentswrite comment
1 2 3 4 5
3 more votes to show rating
add to favorites
launch autoscroll
font size
0
reset
how to read this tab
guitar tuner
Autoscroll
slow
fast
+/-
esc
set tempo
stop
Help us to improve Ultimate-Guitar.com Take our survey!
×
Author
Difficulty
novice
About this tab version
This version is in the key of G. I've set it up to cover all strings, leaving no open strings to zing out on this beautiful, mellow song. Was this info helpful? Yes No
e|-------------------------------------------------|
B|-3-----------------------3-----------------------|
G|-------------2-4-5-4---2-------------2-4-2-------|
D|-----5-5-4-5-----------------5-5-4-5-------5-----|
A|-------------------------------------------------|
E|-------------------------------------------------|


e|-------------------------------------------------|
B|-3---3-3-----------------------------------------|
G|---------5-4-4-2---------------------5---5-4---2-|
D|-----------------5-5---4-2-4-5-------------------|
A|-------------------------------5---5-------------|
E|-------------------------------------------------|



e|-------------------------------------------------------------|
B|-----------------------3-----------------------------3-------|
G|-------2-----4-5-4-2-----4---2-------2-----4-5-4-2-----------|
D|-5-----------------------------5-----------------------5-----|
A|-------------------------------------------------------------|
E|-------------------------------------------------------------|

Suggest correction
Give kudos to tab author, rate the tab!
1 2 3 4 5
comments
print report bad tab
guest
You may want to rate the tab now too:
select rating
Wanna post a correction for this tab? Suggest correction