Oops, an error
Loading. Please wait.

Up On The Housetop Tab

version 2
version 2

Whole song

Interactive

8,601 views 1 this week
2 commentsread comments
1 2 3 4 5
accurate
x 4
add to favorites
launch autoscroll
font size
0
reset
how to read this tab
guitar tuner
Tab Pro tools
  • play this tab
  • loop segment
  • change instrument
  • show fretboard
  • metronome
×
Best way to learn
"Up On The Housetop"
Autoscroll
slow
fast
+/-
esc
set tempo
stop
Contributor
I tabbed this song out with my ear, so if it doesn't sound right, send me a comment at 
 Enjoy it and Merry Christmas!

s= slide
r= ring (about a second)


e|-12-12-14-12-9--5-9-12r---14-14-12-9r--12-12r---12-12-14-12-12-9--5-9-12r|
b|-------------------------------------12----------------------------------|
g|-------------------------------------------------------------------------|
D|-------------------------------------------------------------------------|
A|-------------------------------------------------------------------------|
E|-------------------------------------------------------------------------|


e|-14-14-14-12-12-9---12----10-10-14--12-12-9--7-7-10--9-9-12-5rs12-12-14--|
b|------------------12--10r------------------------------------------------|
g|-------------------------------------------------------------------------|
D|-------------------------------------------------------------------------|
A|-------------------------------------------------------------------------|
E|-------------------------------------------------------------------------|


e|12-9--10-12-14r--14-14-14-12-12-9---12-----------------------------------|
b|----------------------------------12--10r--------------------------------|
g|-------------------------------------------------------------------------|
D|-------------------------------------------------------------------------|
A|-------------------------------------------------------------------------|
E|-------------------------------------------------------------------------|


If you know how the song goes and its tempo, then I think it will sound just like it.  
not, please send me a comment.
comments
print report bad tab
2 comments total.
0 reply
Skylark2016 wrote on October 17 2012, 11:04 pm

This sound right! I just decided to take everything down an octave and here’s what I got:

e12 = e0 ; e14 = e2; e9 = b2 ; e5 = g2 ; e10 = b3 ; e7 = b0 ; b12 = b0 ; b10 = g2

e|--0-0-2-0-------0r---2-2-0------0-0r----0-0-2-0-0-------0r----2-2-2-0-0-----0----|
b|----------2---2------------2r-0-------------------2---2-----------------2-0------|
g|------------2---------------------------------------2-------------------------2--|
d|---------------------------------------------------------------------------------|
a|---------------------------------------------------------------------------------|
E|---------------------------------------------------------------------------------|

e|-----2---0-0---------------0-------0-0-2-0----0-2r---2-2-2-0-0-----0----|
b|-3-3--------2---0-0-3---2-2----------------2-3-----------------2-0------|
g|-----------------------------2r-------------------------------------2r--|
d|------------------------------------------------------------------------|
a|------------------------------------------------------------------------|
E|------------------------------------------------------------------------|

0 reply
best-guitarist wrote on November 14 2015, 10:49 am

thx that sounds better

I want to post or [tab]
guest
You may want to rate the tab now too:
select rating
Please do not post tabs as comments. Select "correction" instead!