Oops, an error
Loading. Please wait.

We Three Kings Tab

version 4
version 4

Interactive

3,877 views 3 this week
no commentswrite comment
1 2 3 4 5
please rate
add to favorites
launch autoscroll
font size
0
reset
how to read this tab
guitar tuner
Autoscroll
slow
fast
+/-
esc
set tempo
stop
Help us to improve Ultimate-Guitar.com Take our survey!
×
Author
 V~~~~~~~~~~~~~~~~~~~~~repeat~~~~~~~~~
|-------|-------|-------|-------|    |-------|-------|-------|-------|
|-0-----|-------|-------|-------|\  O|-------|-------|-------|-------|
|-----2-|-0-----|-6/7\6-|-------| \  |-0---0-|-2---2-|-4---4-|-7\5\4-|
|-------|-----2-|-4/5\4-|-2-----|  \ |-0-----|-0-----|-0-----|-5\3\2-|
|-------|-------|-------|-------|O  \|-------|-------|-------|-0-----|
|-0-----|-------|-0-----|-0-----|    |-0-----|-2-----|-3-----|-------|

                        V~~~~~~~~~~~~~~~~~~~~~~~~repeat~~~~~~
|-------|-------|-------|-------|-------|-------|-------|    |
|-------|-------|-------|-------|-------|-------|-------|\  O|
|-2-4-2-|-------|-------|-------|-------|-------|-------| \  |
|-------|-5-4-2-|-5/8---|-5---5-|-5---0-|-5---2-|-5-----|  \ |
|-------|-------|-3/6---|-5-----|-------|-5-----|-5-----|O  \|
|-0-----|-0---0-|-------|-------|-------|-------|-------|    |


|-------|-------|-------|-------|-------|-------|
|-------|-------|-------|-------|-------|-------|
|-0---0-|-2---2-|-4---4-|-7\5\4-|-2-4-2-|-------|
|-------|-------|-------|-------|-------|-5-4-2-|
|-------|-------|-------|-------|-------|-------|
|-------|-------|-------|-------|-------|-------|
Suggest correction
Give kudos to tab author, rate the tab!
1 2 3 4 5
comments
print report bad tab
guest
You may want to rate the tab now too:
select rating
Please do not post tabs as comments. Select "correction" instead!