Oops, an error
Loading. Please wait.

We Wish You A Merry Christmas Tab

version 2
version 2

Whole song

Interactive

203,380 views 21 this week
28 commentsread comments
1 2 3 4 5
excellent!
x 241
add to favorites
launch autoscroll
font size
0
reset
how to read this tab
guitar tuner
Autoscroll
slow
fast
+/-
esc
set tempo
stop
Help us to improve Ultimate-Guitar.com Take our survey!
×
Contributor

|----------------------0-----------0-0-1-0-------------------------------|
|--1-1-3-1-0-------3-3---3-1-0-------------3-1---------3-0-1---1-1-1-0-0-|
|------------2-2-2-------------0-0-------------2-0-0-2-------0-----------|
|0-----------------------------------------------------------------------|
|------------------------------------------------------------------------|
|------------------------------------------------------------------------|

|----------0-----3---------------------------------------------------|
|1-0-----3---3-1-----------3-0-1-------------------------------------|
|----2-0-----------0-0-0-2-------------------------------------------|
|--------------------------------------------------------------------|
|--------------------------------------------------------------------|
|--------------------------------------------------------------------|

PLZ RATE!!! Have fun!!!
comments
print report bad tab
28 comments total. Showing first comments.
+6 reply
Chokolate1123 27 wrote on February 18 2008, 02:26 pm

Awesome that was great! If only I could rate it 6 for awesomeness!

+2 reply
Pyro Punk1 88 wrote on June 28 2008, 07:58 pm

WOW! Thankyou now i can play that for christmas get-togethers~! I'd rate it like 1 million out of 5 stars =)

+4 reply
M.Vengeance 182 wrote on November 23 2008, 03:29 pm

when u end u COULD end w/ the chord u know know for a homey feeling!!
e-0--|
b-1--|
g-0--|
d-2--|
a----|
E----|

I want to post or [tab]
guest
You may want to rate the tab now too:
select rating
Please do not post tabs as comments. Select "correction" instead!