Oops, an error
Loading. Please wait.

We Wish You A Merry Christmas Tab

version 4
version 4

Whole song

Interactive

21,398 views 426 this week
no commentswrite comment
1 2 3 4 5
x 13
add to favorites
launch autoscroll
font size
0
reset
how to read this tab
guitar tuner
Autoscroll
slow
fast
+/-
esc
set tempo
stop
Help us to improve Ultimate-Guitar.com Take our survey!
×
Author
Tabbers playing skills
----------------------------------------------------------------------------
                       We Wish You a Merry Christmas
----------------------------------------------------------------------------


Tabbed by: Dave S. 
Email: prime-prine@hotmail.com

Tuning: Standard



                       C                   F 
E|------------------|-------------------|-----------------|
B|------------------|--1----1--3--1--0--|-----------------|
G|-------------0----|-------------------|--2----2----2----|
D|------------------|-------------------|-----------------|
A|------------------|-------------------|-----------------|
E|------------------|-------------------|-----------------|

    Dm                  G
------------0--------|-----------------|
----3----3-----3--1--|--0--------------|
---------------------|-------0----0----|
---------------------|-----------------|
---------------------|-----------------|
---------------------|-----------------|

  E7                  Am        C        F         G       C        
--0----0--1--0-----|------------------|-----------------|---------------|
----------------3--|--1---------------|-------3----0----|--1------------|
-------------------|-------2----0--0--|--2--------------|---------------|
-------------------|------------------|-----------------|---------------|
-------------------|------------------|-----------------|---------------|
-------------------|------------------|-----------------|---------------|

    
  C                 G                 Am        D7      G
-----------------|-----------------|-----------------|-----------------|
--1----1----1----|--0---------0----|--1----0---------|------------3----|
-----------------|-----------------|------------2----|--0--------------|
-----------------|-----------------|-----------------|-----------------|
-----------------|-----------------|-----------------|-----------------|
-----------------|-----------------|-----------------|-----------------|

  C    G    Am      G                  F         G       C
--0--------------|--3---------------|-----------------|---------------|
-------3----1----|------------------|-------3----0----|--1------------|
-----------------|-------0----0--0--|--2--------------|---------------|
-----------------|------------------|-----------------|---------------|
-----------------|------------------|-----------------|---------------|
-----------------|------------------|-----------------|---------------|

                     C
------------------|-------------------|-----------------|
------------------|--1----1--3--1--0--|-----------------|
-------------0----|-------------------|--2----2----2----|
------------------|-------------------|-----------------|
------------------|-------------------|-----------------|
------------------|-------------------|-----------------|

    Dm                  G
------------0--------|-----------------|
----3----3-----3--1--|--0--------------|
---------------------|-------0----0----|
---------------------|-----------------|
---------------------|-----------------|
---------------------|-----------------|

  E7                  Am        C        F         G       C        
--0----0--1--0-----|------------------|-----------------|---------------|
----------------3--|--1---------------|-------3----0----|--1------------|
-------------------|-------2----0--0--|--2--------------|---------------|
-------------------|------------------|-----------------|---------------|
-------------------|------------------|-----------------|---------------|
-------------------|------------------|-----------------|---------------|

| /  slide up
| \  slide down
| h  hammer-on
| p  pull-off
| ~  vibrato
| +  harmonic
| x  Mute note
===========================================================================
Suggest correction
comments
print report bad tab
guest
You may want to rate the tab now too:
select rating
Wanna post a correction for this tab? Suggest correction