Oops, an error
Loading. Please wait.

We Wish You A Merry Christmas Tab

version 6
version 6

Whole song

Interactive

1,591 views 15 this week
1 commentread comment
1 2 3 4 5
x 6
add to favorites
launch autoscroll
font size
0
reset
how to read this tab
guitar tuner
Autoscroll
slow
fast
+/-
esc
set tempo
stop
Help us to improve Ultimate-Guitar.com Take our survey!
×
Author
Difficulty
About this tab version
This Arrangment is Made by JustinGuitar of JustinGuitar.com. It is a fingerstyle chorded melody (instead of just a melody) made for a single guitar. I decided to type out the tab for the users of Ultimate-Guitar.com. Was this info helpful? Yes No
-------------------------------------------------------------------------------
                           We Wish You A Merry Christmas
                             Arranged By Justin Guitar
-------------------------------------------------------------------------------
Tabbed by: JustinGuitar

Tuning: Standard (EADGBe)

Key of C

Part 1.

      C         F        D(m)      G        E          A(m)     F   G C                           
e|-------------------------1-0--------------0--0-1-0--------------------
B|----1-1-3-1-0----------3-----3-1-0--------0--------3-1----------3-0-1-
G|-0--0---------2-----2--2---------0--0--0--1----------2--0--0--2---0-0-
D|----2---------3--3-----0---------0----------------------------3---0-2-
A|----3---------3--------------------------------------0--------3-----3-
E|--------------1------------------3--------0-------------------1---3---

Part 2.

      C        G        F         C        C        G         F   G C  
e|----------------------------------------0---------3-------------------
B|----1--1--1--0----0---1--0-----------3--1-3-1-1---0-----------3-0-1---
G|----0--------0--------2-----2---0-------0---------0-0--0-0--2-----0---
D|----2--------0--------3---------2---------------------------3-----2---
A|----3---------------------------3-------3-------------------------3---
E|-------------3--------1---------------------------3---------1---3-----


VERSE ORDER:
PART 1 x1
PART 2 x1

Link to Justin's PDF:
http://tinyurl.com/pvjx989

Link To Lesson Video:
https://www.youtube.com/watch?v=Z7oDgVcx6jc

Justin's Social Media:
https://twitter.com/justinsandercoe
https://www.facebook.com/justinguitarofficial
https://www.youtube.com/user/JustinSandercoe <-----Lessons
https://www.youtube.com/user/JustinSandercoeSongs <-----Songs
Suggest correction
comments
print report bad tab
1 comment total.
0 reply
heyitsconnor123 10 Dec 23, 2016 10:41 AM

part one should be
e|---------------------------0--------------0--0-1-0--------------------
B|----1-1-3-1-0----------3-3---3-1-0--------0--------3-1----------3-0-1-
G|-0--0---------2-----2--2---------0--0--0--1----------2--0--0--2---0-0-
D|----2---------3--3-----0---------0----------------------------3---0-2-
A|----3---------3--------------------------------------0--------3-----3-
E|--------------1------------------3--------0-------------------1---3---
Merry Christmas

guest
You may want to rate the tab now too:
select rating
Wanna post a correction for this tab? Suggest correction