Oops, an error
Loading. Please wait.

White Christmas Tab

version 3
version 3

Whole song

Interactive

27,263 views 1 this week
3 commentsread comments
1 2 3 4 5
x 9
add to favorites
launch autoscroll
font size
0
reset
how to read this tab
guitar tuner
Autoscroll
slow
fast
+/-
esc
set tempo
stop
Help us to improve Ultimate-Guitar.com Take our survey!
×
Author
Misc Christmas White Christmas
Tabbed by Liam
Email: guitar_rocker_47@hotmail.com
Tuning standard
 

Sounds best if you play both parts together with two guitarists but if you
play on your own you can play whichever version your heart desires, (although
the chord version sounds weird on its own) please rate this tab I know it is a
novelty tab but it took my roughly the time it takes to tab about a whole song
including bass tab - it was hard.

Single Notes
E|--0--1---0-------0--1----2-----3----5----7----8---10---8-7----5----3--|
B|--------------4-------------------------------------------------------|
G|----------------------------------------------------------------------|
D|----------------------------------------------------------------------|
A|----------------------------------------------------------------------|
E|----------------------------------------------------------------------|
   I'm dreaming of a white Christmas  Just like the ones I used to  know

E|-----------0---0----0---5----3----------------3--1--0----1------0------------|
B|--1-----3-----------------------1---1----1---------------------------3--1--3-|
G|-----------------------------------------------------------------------------|
D|-----------------------------------------------------------------------------|
A|-----------------------------------------------------------------------------|
E|-----------------------------------------------------------------------------|
   Where the treetops glisten and children listen  to hear sleigh-bells in the snow

E|--0---1---0------0--1----2-----3----5----7--8--10----8---7----5---3-|
B|--------------4-----------------------------------------------------|
G|--------------------------------------------------------------------|
D|--------------------------------------------------------------------|
A|--------------------------------------------------------------------|
E|--------------------------------------------------------------------|
   I'm dreaming of a white Christmas  With every Christmas card I write

E|-----------0---0--5---3--3--8---------------0---0----5-----3-0---------|
B|-1----4----------------------------1----3-----------------------0--1---|
G|-----------------------------------------------------------------------|
D|-----------------------------------------------------------------------|
A|-----------------------------------------------------------------------|
E|-----------------------------------------------------------------------|
   May your days be merry and bright and may all your Christmases be white


Chords
E|--7--8---7-------7--8----9----10----12---14---15--17--15-14---12--10--|
B|--5--6---5---11--5--6----7-----8----10---12---13--15--13-12---10---8--|
G|--------------8-------------------------------------------------------|
D|----------------------------------------------------------------------|
A|----------------------------------------------------------------------|
E|----------------------------------------------------------------------|
   I'm dreaming of a white Christmas  Just like the ones I used to  know

E|-----------7---7----7---12--10--------------10--8--7----8------7---------------|
B|--8----11--5---5----5---10---8--8---8----8---8--6--5----6------5----11---8--11-|
G|--5-----7-----------------------5---5----5---------------------------7---5---7-|
D|-------------------------------------------------------------------------------|
A|-------------------------------------------------------------------------------|
E|-------------------------------------------------------------------------------|
   Where the treetops glisten and children listen  to hear sleigh-bells in the snow

E|--7--8---7-------7--8----9----10----12---14-15-17----15--14--12-10-|
B|--5--6---5---11--5--6----7-----8----10---12-13-15----13--12--10--8-|
G|--------------8----------------------------------------------------|
D|-------------------------------------------------------------------|
A|-------------------------------------------------------------------|
E|-------------------------------------------------------------------|
   I'm dreaming of a white Christmas  With every Christmas card I write

E|----------7----7--12-10-10--15-------------7---7----12---10-------------|
B|-8---11---5----5--10--8--8--13-----8---11--5---5----10----8--7--7--8----|
G|-5----8----------------------------5----7--------------------4--4--5----|
D|------------------------------------------------------------------------|
A|------------------------------------------------------------------------|
E|------------------------------------------------------------------------|
   May your days be merry and bright and may all your Christmases be white

Lyrics

I'm dreaming of a white Christmas 
Just like the ones I used to know 
Where the treetops glisten 
And children listen 
To hear sleigh-bells in the snow 

I'm dreaming of a white Christmas 
With every Christmas card I write 
May your days be merry and bright 
And may all your Christmases be white
Suggest correction
comments
print report bad tab
3 comments total.
-1 reply
JP_YM_ZW 41 Dec 17, 2006 12:09 AM

The chords sound really weird, dude. Powerchords? Are you 12?

-1 reply
Liam 1,995 Dec 19, 2006 08:33 AM

no im 18 you ****ing dumbass. go fuk yourself

+1 reply
Tommygun666 10 Nov 30, 2012 12:29 PM

Christmas is the time of peace and love..

guest
You may want to rate the tab now too:
select rating
Wanna post a correction for this tab? Suggest correction