Oops, an error
Loading. Please wait.

White Christmas Tab

version 4
version 4

Whole song

Interactive

9,555 views 1 this week
1 commentread comment
1 2 3 4 5
x 4
add to favorites
launch autoscroll
font size
0
reset
how to read this tab
guitar tuner
Autoscroll
slow
fast
+/-
esc
set tempo
stop
Author
Tabbers playing skills
----------------------------------------------------------------------------
                             White Christmas
----------------------------------------------------------------------------

Tabbed by: Dave S. 
Email: prime-prine@hotmail.com

Tuning: Standard





Gtr I (E A D G B E) 

  Q=100
  Gtr I
 
|-------------|-1--0-----0--|-1-----------|-2--3--------|------|
|-5-----------|-------4-----|----1-----1--|-2--3--3-----|-3----|
|----5-----5--|-------------|-------2-----|-3--4-----4--|------|
|-------5-----|-0-----4-----|-0-----------|-4--5--------|------|
|-3-----------|-------------|-------------|-------------|------|
|-------------|-------------|-------------|-------------|------|


|-------------|--------------|-------------|-------------|-0--0---|
|-1-----0--1--|-3----1-0-----|-------------|-------1--3--|----1---|
|----2--------|----1------2--|-0-----------|-0-----0--2--|----0---|
|-3-----------|-3------------|----2-----2--|----2--2--3--|----2---|
|-------------|--------------|-3-----------|-3-----------|-3------|
|-------------|--------------|-------3-----|-------------|--------|


|-0--0-----5--|----3--------|----------3--|----1--0-----|--------|
|----0--2--2--|-2-----1-----|-1-----1-----|-1-----------|--------|
|----0-----2--|-------2--2--|-2--2--1-----|----------0--|----0---|
|----2--------|-------3-----|-2-----0-----|-------------|-2------|
|-2-----1-----|-------------|-------------|-------3-----|--------|
|-------------|-------------|-------------|-------------|--------|


|-1--0--------|-------------|---------------|
|-2--2--3--1--|-3-----------|-3-------------|
|-2-----------|----0-----0--|----0-----0----|
|-------------|-------0-----|-------0-------|
|-------------|-------------|---------------|
|-------------|-3-----------|-3-------------|


|-------------|-1--0-----0--|-1-----------|-2--3--------|-----|
|-5-----------|-------4-----|----1-----1--|-2--3--3-----|-3---|
|----5-----5--|-------------|-------2-----|-3--4-----4--|-----|
|-------5-----|-0-----4-----|-0-----------|-4--5--------|-----|
|-3-----------|-------------|-------------|-------------|-----|
|-------------|-------------|-------------|-------------|-----|


|-------------|--------------|-------------|-------------|-0--0---|
|-1-----0--1--|-3----1-0-----|-------------|-------1--3--|----1---|
|----2--------|----1------2--|-0-----------|-0-----0--2--|----0---|
|-3-----------|-3------------|----2-----2--|----2--2--3--|----2---|
|-------------|--------------|-3-----------|-3-----------|-3------|
|-------------|--------------|-------3-----|-------------|--------|


|-0--0-----5--|----3---8------|--8-------8------|-------0-----|--------|
|----0--2--2--|-2---------10--|-----10------10--|-1--3--------|--------|
|----0-----2--|-------10------|-10------10------|----------0--|----0---|
|----2--------|---------------|-----------------|-------------|-2------|
|-2-----1-----|---------------|-----------------|-------3-----|--------|
|-------------|---------------|-----------------|-------------|--------|


|-3----1-0-----|-0----|
|-----------3--|-1----|
|--------------|-0----|
|----0---------|-2----|
|--------------|-3----|
|-3------------|-3----|

| /  slide up
| \  slide down
| h  hammer-on
| p  pull-off
| ~  vibrato
| +  harmonic
| x  Mute note
===========================================================================
Suggest correction
comments
print report bad tab
1 comment total.
0 reply
Vahi786 58 Dec 22, 2011 03:45 PM

Great tab! No mistakes as far as I can tell. Excellent work.

guest
You may want to rate the tab now too:
select rating
Wanna post a correction for this tab? Suggest correction