Oops, an error
Loading. Please wait.

White Christmas Tab

version 5
version 5

Whole song

Interactive

1,406 views 6 this week
no commentswrite comment
1 2 3 4 5
2 more votes to show rating
add to favorites
launch autoscroll
font size
0
reset
how to read this tab
guitar tuner
Autoscroll
slow
fast
+/-
esc
set tempo
stop
Help us to improve Ultimate-Guitar.com Take our survey!
×
Author
Difficulty
novice
----------------------------------------
           WHITE CHRISTMAS
----------------------------------------

Tabbed by: JW
E-mail: basis2000@emailn.de

Tuning: Standard


e-------------------------7------------|
B-------------4-5--7-9-10---10-9-7-----|
G-6-7-6-5-6-7----------------------9---|
D--------------------------------------|
A--------------------------------------|
E--------------------------------------|

e--------------------------------------|
B-----------7--------------------------|
G-----6-6-6---9-------9--7-6-7-6-------|
D-7-9-----------7-7-7------------9-7-9-|
A--------------------------------------|
E--------------------------------------|

e-------------------------7------------|
B-------------4-5--7-9-10---10-9-7-----|
G-6-7-6-5-6-7----------------------9---|
D--------------------------------------|
A--------------------------------------|
E--------------------------------------|

e---------------5----------------------|
B-----------7-5------------7-7---------|
G-----6-6-6------------6-6-------------|
D-7-9--------------7-9---------6-6-7---|
A--------------------------------------|
E--------------------------------------|

****************************************

| /   slide up
| \   slide down
| h   hammer-on
| p   pull-off
| ~   vibrato
| +   harmonic
| x   Mute note
| b   Bend
| pb  Pre-bend
| br  Bend release
| pbr Pre-bend release
| brb Bend release bend

*****************************************
Suggest correction
Give kudos to tab author, rate the tab!
1 2 3 4 5
comments
print report bad tab
guest
You may want to rate the tab now too:
select rating
Wanna post a correction for this tab? Suggest correction