Oops, an error
Loading. Please wait.

Winter Wonderland Bass Tab

version 1
version 1

Whole song

Interactive

3,107 views 186 this week
no commentswrite comment
1 2 3 4 5
x 5
add to favorites
launch autoscroll
font size
0
reset
guitar tuner
Autoscroll
slow
fast
+/-
esc
set tempo
stop
Help us to improve Ultimate-Guitar.com Take our survey!
×
Author
Difficulty
intermediate
  (Sleigh bells ring…)
G  -------------------------------------------------------------------|
D  -------------------------------------------------------------------|
A  5-2-5-5-5-2-5--5-2-5-5-5-2-5--9-12-9-7--5-7-5-3--2-2-2-5-0-0-0-2---|
E  -----------------------------------------------------------------3-|


  (Gone away is…)
G  -------------------------------------------------------------------|
D  -------------------------------------------------------------------|
A  5-2-5-5-5-2-5--5-2-5-5-5-2-5--9-9-12-7--5-5-7-3--2-2-2-5-0-0-0-2---|
E  -----------------------------------------------------------------3-|

  (In the meadow…)
G  ------------------------------------------------------------------|
D  ----9-9-----10-10-9-5------9-9-----10-11-9-7-9--------------------|
A  5-5-----7-7------------5-5-----7-7--------------------------------|
E  ------------------------------------------------------------------|


  (He’ll say are…)
G  ------------------------------------------------------------------|
D  ----12-12-------13-15-12-10-5------13-13-------11-11--------------|
A  9-9-------11-11-----------------10-------11-11-------10-10-3------|
E  ------------------------------------------------------------------|


  (Later on…)
G  -------------------------------------------------------------------|
D  -------------------------------------------------------------------|
A  5-2-5-5-5-2-5--5-2-5-5-5-2-5--9-12-9-7--5-7-5-3--2-2-2-5-0-0-0-2---|
E  -----------------------------------------------------------------3-|

  (In the meadow…)
G  ------------------------------------------------------------------|
D  ----9-9-----10-10-9-5------9-9-----10-11-9-7-9--------------------|
A  5-5-----7-7------------5-5-----7-7--------------------------------|
E  ------------------------------------------------------------------|

  (When it snows…)
G  -------------------------------------------------------------------|
D  -------------------------------------------------------------------|
A  5-2-5-5-5-2-5--5-2-5-5-5-2-5--9-12-9-7--5-7-5-3--2-2-2-5-0-0-0-2---|
E  -----------------------------------------------------------------3-|
Suggest correction
comments
print report bad tab
guest
You may want to rate the tab now too:
select rating
Wanna post a correction for this tab? Suggest correction