Oops, an error
Loading. Please wait.

Youre A Mean One Mr Grinch Tab

version 1
version 1

Whole song

490 views 6 this week
no commentswrite comment
1 2 3 4 5
3 more votes to show rating
add to favorites
launch autoscroll
font size
0
reset
how to read this tab
guitar tuner
Autoscroll
slow
fast
+/-
esc
set tempo
stop
Author
Difficulty
novice
Your a mean one Mr. Grinch
By: Snoye

You're a mean one, Mr. Grinch
You really are a heel,
You're as cuddly as a cactus, you're as charming as an eel, Mr. Grinch:

E|---------------------------------------------------------------------------
B|--------------------------------4---6-----7-5-3-2-3-0-0-0-5-3-2-0-2-------7
G|-------4-6--------6-4-2-1-2-6-----1---6-6---------------------------2-1----
D|--5\7------4-5\7--------------4-----------------------------------------4--
A|---------------------------------------------------------------------------
E|---------------------------------------------------------------------------

I couldnt figure out the "You're a bad banana with a greasy black peel!" part to the song.
pluse its different at the end of each chorus


E|----------1-----------1-----------1--
B|----2-1---------2-1---------2-1------
G|--0-----3---3-3-----3---3-3-----3---3
D|-------------------------------------
A|-------------------------------------
E|-------------------------------------

Thats the little lick in the end of the first chorus (it may be off a bit) but its fun to play.
Suggest correction
Give kudos to tab author, rate the tab!
1 2 3 4 5
comments
print report bad tab
guest
You may want to rate the tab now too:
select rating
Wanna post a correction for this tab? Suggest correction