Oops, an error
Loading. Please wait.

7Th Saga - Church Theme Bass Tab

version 1
version 1

Whole song

  • There is no plain bass tab for this song.

Interactive

22 views 1 this week
no commentswrite comment
1 2 3 4 5
3 more votes to show rating
add to favorites
launch autoscroll
font size
0
reset
guitar tuner
Autoscroll
slow
fast
+/-
esc
set tempo
stop
Help us to improve Ultimate-Guitar.com Take our survey!
×
Author
Difficulty
About this tab version
There is no plain bass tab for this song. Was this info helpful? Yes No
#----------------------------------PLEASE NOTE---------------------------------#
#This file is the author's own work and represents their interpretation of the #
#song. You may only use this file for private study, scholarship, or research. #
#------------------------------------------------------------------------------##

7th Saga (SNES) - Church theme...on bass!!!

[WHOLE SONG - NO LYRICS]

Gtr I (B E A D G) - 'Organ Bass Pedal'

  Gtr I
   H.         H.        H.        H.        H.        H.
G|----------|----------|---------|---------|---------|-------|
D|----------|----------|---------|---------|---------|-------|
A|-10-------|----------|-7-------|---------|---------|-------|
E|----------|-10-------|---------|-7-------|-8-------|-------|
B|----------|----------|---------|---------|---------|-8-----|


  H.         H.         H.        H.        H.         H.
|---------|----------|----------|---------|---------|--------|
|---------|----------|----------|---------|---------|--------|
|---------|----------|-10-------|-9-------|-7-------|--------|
|-5-------|-10-------|----------|---------|---------|-10-----|
|---------|----------|----------|---------|---------|--------|


  H.         H.        H.         H.         H.         H.
|---------|----------|---------|----------|----------|--------|
|---------|----------|---------|----------|----------|--------|
|---------|----------|---------|-10-------|-10-------|--------|
|-8-------|-10-------|---------|----------|----------|-10-----|
|---------|----------|-8-------|----------|----------|--------|


  H.        H.        H.        H.        H.         H.
|---------|---------|---------|---------|---------|--------|
|---------|---------|---------|---------|---------|--------|
|-7-------|---------|---------|---------|---------|--------|
|---------|-7-------|-8-------|---------|-5-------|-10-----|
|---------|---------|---------|-8-------|---------|--------|


   H.        H.        H.         H.        H.         H.
|----------|---------|---------|----------|---------|--------|
|----------|---------|---------|----------|---------|--------|
|-10-------|-9-------|-7-------|----------|---------|--------|
|----------|---------|---------|-10-------|-8-------|-10-----|
|----------|---------|---------|----------|---------|--------|


  H.         H.         H.         H.        H.        H.
|---------|----------|----------|----------|---------|-------|
|---------|----------|----------|----------|---------|-------|
|---------|-10-------|-10-------|----------|-7-------|-------|
|---------|----------|----------|-10-------|---------|-7-----|
|-8-------|----------|----------|----------|---------|-------|


  H.        H.        H.         H.         H.        H.
|---------|---------|---------|----------|----------|-------|
|---------|---------|---------|----------|----------|-------|
|---------|---------|---------|----------|-10-------|-9-----|
|-8-------|---------|-5-------|-10-------|----------|-------|
|---------|-8-------|---------|----------|----------|-------|


  H.         H.        H.         H.        H.         H.
|---------|----------|---------|----------|---------|--------|
|---------|----------|---------|----------|---------|--------|
|-7-------|----------|---------|----------|---------|-10-----|
|---------|-10-------|-8-------|-10-------|---------|--------|
|---------|----------|---------|----------|-8-------|--------|


Suggest correction
Give kudos to tab author, rate the tab!
1 2 3 4 5
comments
print report bad tab
guest
You may want to rate the tab now too:
select rating
Wanna post a correction for this tab? Suggest correction