Oops, an error
Loading. Please wait.

7Th Saga - Church Theme Tab

version 1
version 1

Whole song

  • There is no plain tab of this song.

Interactive

22 views 1 this week
no commentswrite comment
1 2 3 4 5
3 more votes to show rating
add to favorites
launch autoscroll
font size
0
reset
how to read this tab
guitar tuner
Autoscroll
slow
fast
+/-
esc
set tempo
stop
Help us to improve Ultimate-Guitar.com Take our survey!
×
Author
Difficulty
intermediate
About this tab version
There is no plain tab of this song. Was this info helpful? Yes No
7th Saga (SNES) - Church theme

[WHOLE SONG - NO LYRICS]

Gtr I (E A D G B E) - 'Church Organ 1'
Gtr II (E A D G B E) - 'Church Organ 2'
Gtr III (E A D G B E) - 'Church Organ 3'

  3/4
   Gtr I
    E  E  E  E  E  E    E  E  E  E  E  E    E E E  E  E  E    E E E E E E
e|----------10-------|-------------------|---------7-------|----------------|
B|-------12----12----|----------10-------|------8-----8----|--------7-------|
G|----12----------12-|-------11----11----|----9----------9-|------7---7-----|
D|-------------------|----12----------12-|-----------------|----9-------9---|
A|-10----------------|-------------------|--7--------------|----------------|
E|-------------------|-10----------------|-----------------|--7-------------|
|
 | Gtr II
 |  Q     E  E  E  E    Q     E  E  E  E    Q   E  E  E  E    H       Q
e|-------19-17-19----|-------22----22----|-19-----17----17-|-19-------------|
B|-20----------------|-22----------------|-----------20----|----------------|
G|-------------------|-------------------|-----------------|----------------|
D|-------------------|-------------------|-----------------|----------------|
A|-------------------|-------------------|-----------------|----------------|
E|-------------------|-------------------|-----------------|----------------|


    E  E  E E  E  E    E E E E  E E    E E  E E  E E    E E  E E  E E
e|------------------|---------------|----------------|------------------|
B|------------------|--------3------|---------5------|---------7--------|
G|----------9-------|------4----4---|-------6----6---|-------7----7-----|
D|-------10---10----|----5--------5-|----7---------7-|----7---------7---|
A|----10---------10-|---------------|----------------|--5---------------|
E|--8---------------|--3------------|--5-------------|------------------|
|
 |  Q     E E  E  E    Q   Q    E E    Q    E E  E E    Q    E E  E E
e|-------17---19----|---------------|------17---19---|------22---22-----|
B|-20---------------|-20-------17---|-20-------------|-22---------------|
G|------------------|---------------|----------------|------------------|
D|------------------|---------------|----------------|------------------|
A|------------------|---------------|----------------|------------------|
E|------------------|---------------|----------------|------------------|


    E  E  E  E  E  E    E  E  E  E  E  E
e|----------10-------|----------10-------|
B|-------12----12----|-------12----12----|
G|----12----------12-|----11----------11-|
D|-------------------|-------------------|
A|-10----------------|--9----------------|
E|-------------------|-------------------|
|
 |  Q     E  E  E  E    Q     E  E  E  E
e|-------19-17-19----|-------22----22----|
B|-20----------------|-22----------------|
G|-------------------|-------------------|
D|-------------------|-------------------|
A|-------------------|-------------------|
E|-------------------|-------------------|


    E E E  E  E  E    E  E  E  E  E  E
e|---------7-------|---------------------|
B|------8-----8----|----------10---------|
G|----9----------9-|-------11----11------|
D|-----------------|----12----------12---|
A|--7--------------|---------------------|
E|-----------------|-10------------------|
|
 |  Q   E  E  E  E    H           Q
e|-19-----17----17-|-19------------------|
B|-----------20----|---------------------|
G|-----------------|---------------------|
D|-----------------|---------------------|
A|-----------------|---------------------|
E|-----------------|---------------------|


    E     E  E E  E  E    E  E  E  E  E  E
e|---------------------|-------------------|
B|-------------8-------|----------10-------|
G|-----------9----9----|-------11----11----|
D|-------10---------10-|----12----------12-|
A|---------------------|-------------------|
E|--8------------------|-10----------------|
|
 |  Q        Q    Q       E  E  E  E  E  E
e|-22b24----22---20----|-19----------19----|
B|---------------------|----22-20-22----19-|
G|---------------------|-------------------|
D|---------------------|-------------------|
A|---------------------|-------------------|
E|---------------------|-------------------|


    E  E  E  E  E  E    E  E  E  E  E  E
e|----------10-------|----------10---------|
B|-------12----12----|-------12----12------|
G|----12----------12-|----12----------12---|
D|-------------------|---------------------|
A|-10----------------|-10------------------|
E|-------------------|---------------------|
|
 |  Q     Q     Q       H           Q
e|-------------19----|---------------------|
B|-20----22----------|-20------------------|
G|-------------------|---------------------|
D|-------------------|---------------------|
A|-------------------|---------------------|
E|-------------------|---------------------|


    E   E  E  E  E  E    E   E  E  E  E  E    E  E E  E  E  E    E  E E E E E
e|-----------10-------|--------------------|----------7-------|-----------------|
B|--------12----12----|-----------10-------|-------8-----8----|---------7-------|
G|-----12----------12-|--------11----11----|-----9----------9-|-------7---7-----|
D|--------------------|-----12----------12-|------------------|-----9-------9---|
A|-10-----------------|--------------------|--7---------------|-----------------|
E|--------------------|-10-----------------|------------------|--7--------------|
|
 |  Q      E  E  E  E    Q      E  E  E  E    Q    E  E  E  E    H        Q
e|--------19-17-19----|--------22----22----|-19------17----17-|-19--------------|
B|-20-----------------|-22-----------------|------------20----|-----------------|
G|--------------------|--------------------|------------------|-----------------|
D|--------------------|--------------------|------------------|-----------------|
A|--------------------|--------------------|------------------|-----------------|
E|--------------------|--------------------|------------------|-----------------|
|
 | Gtr III
 |  H.                   H.                   H.                 H.
e|-27-----------------|-26-----------------|-24---------------|-22--------------|
B|--------------------|--------------------|------------------|-----------------|
G|--------------------|--------------------|------------------|-----------------|
D|--------------------|--------------------|------------------|-----------------|
A|--------------------|--------------------|------------------|-----------------|
E|--------------------|--------------------|------------------|-----------------|


    E   E  E E  E  E    E  E E E  E E    E  E  E E  E E    E   E  E  E  E  E
e|-------------------|----------------|-----------------|----------------------|
B|-------------------|---------3------|----------5------|----------------------|
G|-----------9-------|-------4----4---|--------6----6---|-----------11---------|
D|--------10---10----|-----5--------5-|-----7---------7-|--------12----12------|
A|-----10---------10-|----------------|-----------------|-----12----------12---|
E|--8----------------|--3-------------|--5--------------|-10-------------------|
|
 |  Q      E E  E  E    Q    Q    E E    Q     E E  E E    Q      E  E  E  E
e|--------17---19----|----------------|-------17---19---|--------22----22------|
B|-20----------------|-20--------17---|-20--------------|-22-------------------|
G|-------------------|----------------|-----------------|----------------------|
D|-------------------|----------------|-----------------|----------------------|
A|-------------------|----------------|-----------------|----------------------|
E|-------------------|----------------|-----------------|----------------------|
|
 |  H.                  H.               H.                H.
e|-20----------------|-19-------------|-21--------------|-22-------------------|
B|-------------------|----------------|-----------------|----------------------|
G|-------------------|----------------|-----------------|----------------------|
D|-------------------|----------------|-----------------|----------------------|
A|-------------------|----------------|-----------------|----------------------|
E|-------------------|----------------|-----------------|----------------------|


    E   E  E  E  E  E    E  E  E  E  E  E
e|-----------10-------|----------10-------|
B|--------12----12----|-------12----12----|
G|-----12----------12-|----11----------11-|
D|--------------------|-------------------|
A|-10-----------------|--9----------------|
E|--------------------|-------------------|
|
 |  Q      E  E  E  E    Q     E  E  E  E
e|--------19-17-19----|-------22----22----|
B|-20-----------------|-22----------------|
G|--------------------|-------------------|
D|--------------------|-------------------|
A|--------------------|-------------------|
E|--------------------|-------------------|
|
 |  H.                   H           Q
e|-27-----------------|-26----------22----|
B|--------------------|-------------------|
G|--------------------|-------------------|
D|--------------------|-------------------|
A|--------------------|-------------------|
E|--------------------|-------------------|


    E  E E  E  E  E    E  E  E  E  E  E
e|----------7-------|---------------------|
B|-------8-----8----|----------10---------|
G|-----9----------9-|-------11----11------|
D|------------------|----12----------12---|
A|--7---------------|---------------------|
E|------------------|-10------------------|
|
 |  Q    E  E  E  E    H           Q
e|-19------17----17-|-19------------------|
B|------------20----|---------------------|
G|------------------|---------------------|
D|------------------|---------------------|
A|------------------|---------------------|
E|------------------|---------------------|
|
 |  H.                 H           Q
e|-24---------------|-22----------19------|
B|------------------|---------------------|
G|------------------|---------------------|
D|------------------|---------------------|
A|------------------|---------------------|
E|------------------|---------------------|


    E     E  E E  E  E    E  E  E  E  E  E
e|---------------------|-------------------|
B|-------------8-------|----------10-------|
G|-----------9----9----|-------11----11----|
D|-------10---------10-|----12----------12-|
A|---------------------|-------------------|
E|--8------------------|-10----------------|
|
 |  Q        Q    Q       E  E  E  E  E  E
e|-22b24----22---20----|-19----------19----|
B|---------------------|----22-20-22----19-|
G|---------------------|-------------------|
D|---------------------|-------------------|
A|---------------------|-------------------|
E|---------------------|-------------------|
|
 |  H.                    H           Q
e|-20------------------|-22----------19----|
B|---------------------|-------------------|
G|---------------------|-------------------|
D|---------------------|-------------------|
A|---------------------|-------------------|
E|---------------------|-------------------|


    E   E  E  E  E  E     E   E  E  E  E  E
e|-----------10-------|------------10---------|
B|--------12----12----|---------12----12------|
G|-----12----------12-|------12----------12---|
D|--------------------|-----------------------|
A|-10-----------------|--10-------------------|
E|--------------------|-----------------------|
|
 |  Q      Q     Q        H            Q
e|--------------19----|-----------------------|
B|-20-----22----------|--20-------------------|
G|--------------------|-----------------------|
D|--------------------|-----------------------|
A|--------------------|-----------------------|
E|--------------------|-----------------------|
|
 |  H.                   +H.
e|-27-----------------|-(27)------------------|
B|--------------------|-----------------------|
G|--------------------|-----------------------|
D|--------------------|-----------------------|
A|--------------------|-----------------------|
E|--------------------|-----------------------|


    E   E  E  E  E  E    E   E  E  E  E  E    E  E E  E  E  E    E  E E E E E
e|-----------10-------|--------------------|----------7-------|-----------------|
B|--------12----12----|-----------10-------|-------8-----8----|---------7-------|
G|-----12----------12-|--------11----11----|-----9----------9-|-------7---7-----|
D|--------------------|-----12----------12-|------------------|-----9-------9---|
A|-10-----------------|--------------------|--7---------------|-----------------|
E|--------------------|-10-----------------|------------------|--7--------------|
|
 |  Q      E  E  E  E    Q      E  E  E  E    Q    E  E  E  E    H        Q
e|--------19-17-19----|--------22----22----|-19------17----17-|-19--------------|
B|-20-----------------|-22-----------------|------------20----|-----------------|
G|--------------------|--------------------|------------------|-----------------|
D|--------------------|--------------------|------------------|-----------------|
A|--------------------|--------------------|------------------|-----------------|
E|--------------------|--------------------|------------------|-----------------|
|
 |  H.                   H.                   H.                 H.
e|-27-----------------|-26-----------------|-24---------------|-22--------------|
B|--------------------|--------------------|------------------|-----------------|
G|--------------------|--------------------|------------------|-----------------|
D|--------------------|--------------------|------------------|-----------------|
A|--------------------|--------------------|------------------|-----------------|
E|--------------------|--------------------|------------------|-----------------|


    E   E  E E  E  E    E  E E E  E E    E  E  E E  E E    E   E  E  E  E  E
e|-------------------|----------------|-----------------|----------------------|
B|-------------------|---------3------|----------5------|----------------------|
G|-----------9-------|-------4----4---|--------6----6---|-----------11---------|
D|--------10---10----|-----5--------5-|-----7---------7-|--------12----12------|
A|-----10---------10-|----------------|-----------------|-----12----------12---|
E|--8----------------|--3-------------|--5--------------|-10-------------------|
|
 |  Q      E E  E  E    Q    Q    E E    Q     E E  E E    Q      E  E  E  E
e|--------17---19----|----------------|-------17---19---|--------22----22------|
B|-20----------------|-20--------17---|-20--------------|-22-------------------|
G|-------------------|----------------|-----------------|----------------------|
D|-------------------|----------------|-----------------|----------------------|
A|-------------------|----------------|-----------------|----------------------|
E|-------------------|----------------|-----------------|----------------------|
|
 |  H.                  H.               H.                H.
e|-20----------------|-19-------------|-21--------------|-22-------------------|
B|-------------------|----------------|-----------------|----------------------|
G|-------------------|----------------|-----------------|----------------------|
D|-------------------|----------------|-----------------|----------------------|
A|-------------------|----------------|-----------------|----------------------|
E|-------------------|----------------|-----------------|----------------------|


    E   E  E  E  E  E    E  E  E  E  E  E
e|-----------10-------|----------10-------|
B|--------12----12----|-------12----12----|
G|-----12----------12-|----11----------11-|
D|--------------------|-------------------|
A|-10-----------------|--9----------------|
E|--------------------|-------------------|
|
 |  Q      E  E  E  E    Q     E  E  E  E
e|--------19-17-19----|-------22----22----|
B|-20-----------------|-22----------------|
G|--------------------|-------------------|
D|--------------------|-------------------|
A|--------------------|-------------------|
E|--------------------|-------------------|
|
 |  H.                   H           Q
e|-27-----------------|-26----------22----|
B|--------------------|-------------------|
G|--------------------|-------------------|
D|--------------------|-------------------|
A|--------------------|-------------------|
E|--------------------|-------------------|


    E  E E  E  E  E    E  E  E  E  E  E
e|----------7-------|---------------------|
B|-------8-----8----|----------10---------|
G|-----9----------9-|-------11----11------|
D|------------------|----12----------12---|
A|--7---------------|---------------------|
E|------------------|-10------------------|
|
 |  Q    E  E  E  E    H           Q
e|-19------17----17-|-19------------------|
B|------------20----|---------------------|
G|------------------|---------------------|
D|------------------|---------------------|
A|------------------|---------------------|
E|------------------|---------------------|
|
 |  H.                 H           Q
e|-24---------------|-22----------19------|
B|------------------|---------------------|
G|------------------|---------------------|
D|------------------|---------------------|
A|------------------|---------------------|
E|------------------|---------------------|


    E     E  E E  E  E    E  E  E  E  E  E
e|---------------------|-------------------|
B|-------------8-------|----------10-------|
G|-----------9----9----|-------11----11----|
D|-------10---------10-|----12----------12-|
A|---------------------|-------------------|
E|--8------------------|-10----------------|
|
 |  Q        Q    Q       E  E  E  E  E  E
e|-22b24----22---20----|-19----------19----|
B|---------------------|----22-20-22----19-|
G|---------------------|-------------------|
D|---------------------|-------------------|
A|---------------------|-------------------|
E|---------------------|-------------------|
|
 |  H.                    H           Q
e|-20------------------|-22----------19----|
B|---------------------|-------------------|
G|---------------------|-------------------|
D|---------------------|-------------------|
A|---------------------|-------------------|
E|---------------------|-------------------|


    E   E  E  E  E  E     E   E  E  E  E  E
e|-----------10-------|------------10---------|
B|--------12----12----|---------12----12------|
G|-----12----------12-|------12----------12---|
D|--------------------|-----------------------|
A|-10-----------------|--10-------------------|
E|--------------------|-----------------------|
|
 |  Q      Q     Q        H            Q
e|--------------19----|-----------------------|
B|-20-----22----------|--20-------------------|
G|--------------------|-----------------------|
D|--------------------|-----------------------|
A|--------------------|-----------------------|
E|--------------------|-----------------------|
|
 |  H.                   +H.
e|-27-----------------|-(27)------------------|
B|--------------------|-----------------------|
G|--------------------|-----------------------|
D|--------------------|-----------------------|
A|--------------------|-----------------------|
E|--------------------|-----------------------|





Duration Legend
---------------
W - whole; H - half; Q - quarter; E - 8th; S - 16th; T - 32nd; X - 64th; a - acciaccatura
+ - note tied to previous; . - note dotted; .. - note double dotted
Uncapitalized letters represent notes that are staccato (1/2 duration)
Irregular groupings are notated above the duration line
Duration letters will always appear directly above the note/fret number it represents the
duration for.  Duration letters with no fret number below them represent rests.  Multi-
bar rests are notated in the form Wxn, where n is the number of bars to rest for.  Low
melody durations appear below the staff

Tablature Legend
----------------
 h   - hammer-on
 p   - pull-off
 b   - bend
 pb  - pre-bend
 r   - bend release (if no number after the r, then release immediately)
 /\  - slide into or out of (from/to "nowhere")
 s   - legato slide
 S   - shift slide
 - natural harmonic
[n]  - artificial harmonic
n(n) - tapped harmonic
 ~   - vibrato
 tr  - trill
 T   - tap
 TP  - trem. picking
 PM  - palm muting
\n/  - tremolo bar dip; n = amount to dip
 \n  - tremolo bar down
 n/  - tremolo bar up
/n\  - tremolo bar inverted dip
 =   - hold bend; also acts as connecting device for hammers/pulls
 <> - volume swell (louder/softer)
 x   - on rhythm slash represents muted slash
 o   - on rhythm slash represents single note slash

Misc Legend
-----------
 |  - bar
||  - double bar
||o - repeat start
o|| - repeat end
*|  - double bar (ending)
 :  - bar (freetime)
 $  - Segno
 &  - Coda
Tempo markers -  = BPM(8/16=s8/s16), where s8 = swing 8ths, s16 = swing 16ths
Suggest correction
Give kudos to tab author, rate the tab!
1 2 3 4 5
comments
print report bad tab
guest
You may want to rate the tab now too:
select rating
Wanna post a correction for this tab? Suggest correction